  0
SECTION
  2
HEADER
  9
$ACADVER
  1
AC1015
  9
$ACADMAINTVER
 70
     6
  9
$DWGCODEPAGE
  3
ANSI_1252
  9
$INSBASE
 10
0.0
 20
0.0
 30
0.0
  9
$EXTMIN
 10
-91.34955669350001
 20
149.2332687115
 30
0.0
  9
$EXTMAX
 10
364.0382937069
 20
249.2332687115
 30
88.00000000000001
  9
$LIMMIN
 10
0.0
 20
0.0
  9
$LIMMAX
 10
420.0
 20
297.0
  9
$ORTHOMODE
 70
     1
  9
$REGENMODE
 70
     1
  9
$FILLMODE
 70
     1
  9
$QTEXTMODE
 70
     0
  9
$MIRRTEXT
 70
     1
  9
$LTSCALE
 40
23.1
  9
$ATTMODE
 70
     1
  9
$TEXTSIZE
 40
0.2
  9
$TRACEWID
 40
0.05
  9
$TEXTSTYLE
  7
STANDARD
  9
$CLAYER
  8
0
  9
$CELTYPE
  6
BYLAYER
  9
$CECOLOR
 62
   256
  9
$CELTSCALE
 40
1.0
  9
$DISPSILH
 70
     0
  9
$DIMSCALE
 40
1.0
  9
$DIMASZ
 40
3.0
  9
$DIMEXO
 40
2.625
  9
$DIMDLI
 40
15.96
  9
$DIMRND
 40
0.0
  9
$DIMDLE
 40
0.0
  9
$DIMEXE
 40
7.559999999999999
  9
$DIMTP
 40
0.003
  9
$DIMTM
 40
0.003
  9
$DIMTXT
 40
1.5
  9
$DIMCEN
 40
3.779999999999999
  9
$DIMTSZ
 40
0.0
  9
$DIMTOL
 70
     1
  9
$DIMLIM
 70
     0
  9
$DIMTIH
 70
     1
  9
$DIMTOH
 70
     1
  9
$DIMSE1
 70
     0
  9
$DIMSE2
 70
     0
  9
$DIMTAD
 70
     0
  9
$DIMZIN
 70
     0
  9
$DIMBLK
  1

  9
$DIMASO
 70
     1
  9
$DIMSHO
 70
     1
  9
$DIMPOST
  1

  9
$DIMAPOST
  1

  9
$DIMALT
 70
     0
  9
$DIMALTD
 70
     2
  9
$DIMALTF
 40
25.4
  9
$DIMLFAC
 40
1.0
  9
$DIMTOFL
 70
     0
  9
$DIMTVP
 40
0.0
  9
$DIMTIX
 70
     0
  9
$DIMSOXD
 70
     0
  9
$DIMSAH
 70
     0
  9
$DIMBLK1
  1

  9
$DIMBLK2
  1

  9
$DIMSTYLE
  2
STANDARD
  9
$DIMCLRD
 70
     0
  9
$DIMCLRE
 70
     0
  9
$DIMCLRT
 70
     0
  9
$DIMTFAC
 40
1.0
  9
$DIMGAP
 40
0.09
  9
$DIMJUST
 70
     0
  9
$DIMSD1
 70
     0
  9
$DIMSD2
 70
     0
  9
$DIMTOLJ
 70
     1
  9
$DIMTZIN
 70
     0
  9
$DIMALTZ
 70
     0
  9
$DIMALTTZ
 70
     0
  9
$DIMUPT
 70
     0
  9
$DIMDEC
 70
     4
  9
$DIMTDEC
 70
     4
  9
$DIMALTU
 70
     2
  9
$DIMALTTD
 70
     2
  9
$DIMTXSTY
  7
STANDARD
  9
$DIMAUNIT
 70
     0
  9
$DIMADEC
 70
     0
  9
$DIMALTRND
 40
0.0
  9
$DIMAZIN
 70
     0
  9
$DIMDSEP
 70
    46
  9
$DIMATFIT
 70
     3
  9
$DIMFRAC
 70
     0
  9
$DIMLDRBLK
  1

  9
$DIMLUNIT
 70
     2
  9
$DIMLWD
 70
    -2
  9
$DIMLWE
 70
    -2
  9
$DIMTMOVE
 70
     0
  9
$LUNITS
 70
     2
  9
$LUPREC
 70
     4
  9
$SKETCHINC
 40
0.1
  9
$FILLETRAD
 40
0.0
  9
$AUNITS
 70
     0
  9
$AUPREC
 70
     0
  9
$MENU
  1
acad
  9
$ELEVATION
 40
0.0
  9
$PELEVATION
 40
0.0
  9
$THICKNESS
 40
0.0
  9
$LIMCHECK
 70
     0
  9
$CHAMFERA
 40
0.0
  9
$CHAMFERB
 40
0.0
  9
$CHAMFERC
 40
0.0
  9
$CHAMFERD
 40
0.0
  9
$SKPOLY
 70
     0
  9
$TDCREATE
 40
2444972.041666667
  9
$TDUCREATE
 40
2444972.0
  9
$TDUPDATE
 40
2453410.624049433
  9
$TDUUPDATE
 40
2453410.582382766
  9
$TDINDWG
 40
0.0189377083
  9
$TDUSRTIMER
 40
0.0189377083
  9
$USRTIMER
 70
     1
  9
$ANGBASE
 50
0.0
  9
$ANGDIR
 70
     0
  9
$PDMODE
 70
     0
  9
$PDSIZE
 40
0.0
  9
$PLINEWID
 40
0.0
  9
$SPLFRAME
 70
     0
  9
$SPLINETYPE
 70
     6
  9
$SPLINESEGS
 70
     8
  9
$HANDSEED
  5
739
  9
$SURFTAB1
 70
     6
  9
$SURFTAB2
 70
     6
  9
$SURFTYPE
 70
     6
  9
$SURFU
 70
     6
  9
$SURFV
 70
     6
  9
$UCSBASE
  2

  9
$UCSNAME
  2

  9
$UCSORG
 10
0.0
 20
0.0
 30
0.0
  9
$UCSXDIR
 10
1.0
 20
0.0
 30
0.0
  9
$UCSYDIR
 10
0.0
 20
1.0
 30
0.0
  9
$UCSORTHOREF
  2

  9
$UCSORTHOVIEW
 70
     0
  9
$UCSORGTOP
 10
0.0
 20
0.0
 30
0.0
  9
$UCSORGBOTTOM
 10
0.0
 20
0.0
 30
0.0
  9
$UCSORGLEFT
 10
0.0
 20
0.0
 30
0.0
  9
$UCSORGRIGHT
 10
0.0
 20
0.0
 30
0.0
  9
$UCSORGFRONT
 10
0.0
 20
0.0
 30
0.0
  9
$UCSORGBACK
 10
0.0
 20
0.0
 30
0.0
  9
$PUCSBASE
  2

  9
$PUCSNAME
  2

  9
$PUCSORG
 10
0.0
 20
0.0
 30
0.0
  9
$PUCSXDIR
 10
1.0
 20
0.0
 30
0.0
  9
$PUCSYDIR
 10
0.0
 20
1.0
 30
0.0
  9
$PUCSORTHOREF
  2

  9
$PUCSORTHOVIEW
 70
     0
  9
$PUCSORGTOP
 10
0.0
 20
0.0
 30
0.0
  9
$PUCSORGBOTTOM
 10
0.0
 20
0.0
 30
0.0
  9
$PUCSORGLEFT
 10
0.0
 20
0.0
 30
0.0
  9
$PUCSORGRIGHT
 10
0.0
 20
0.0
 30
0.0
  9
$PUCSORGFRONT
 10
0.0
 20
0.0
 30
0.0
  9
$PUCSORGBACK
 10
0.0
 20
0.0
 30
0.0
  9
$USERI1
 70
     0
  9
$USERI2
 70
     0
  9
$USERI3
 70
     0
  9
$USERI4
 70
     0
  9
$USERI5
 70
     0
  9
$USERR1
 40
0.0
  9
$USERR2
 40
0.0
  9
$USERR3
 40
0.0
  9
$USERR4
 40
0.0
  9
$USERR5
 40
0.0
  9
$WORLDVIEW
 70
     1
  9
$SHADEDGE
 70
     3
  9
$SHADEDIF
 70
    70
  9
$TILEMODE
 70
     1
  9
$MAXACTVP
 70
    16
  9
$PINSBASE
 10
0.0
 20
0.0
 30
0.0
  9
$PLIMCHECK
 70
     0
  9
$PEXTMIN
 10
1.000000000000000E+20
 20
1.000000000000000E+20
 30
1.000000000000000E+20
  9
$PEXTMAX
 10
-1.000000000000000E+20
 20
-1.000000000000000E+20
 30
-1.000000000000000E+20
  9
$PLIMMIN
 10
0.0
 20
0.0
  9
$PLIMMAX
 10
12.0
 20
9.0
  9
$UNITMODE
 70
     0
  9
$VISRETAIN
 70
     0
  9
$PLINEGEN
 70
     1
  9
$PSLTSCALE
 70
     0
  9
$TREEDEPTH
 70
  3020
  9
$CMLSTYLE
  2
STANDARD
  9
$CMLJUST
 70
     0
  9
$CMLSCALE
 40
1.0
  9
$PROXYGRAPHICS
 70
     1
  9
$MEASUREMENT
 70
     0
  9
$CELWEIGHT
370
    -1
  9
$ENDCAPS
280
     0
  9
$JOINSTYLE
280
     0
  9
$LWDISPLAY
290
     0
  9
$INSUNITS
 70
     0
  9
$HYPERLINKBASE
  1

  9
$STYLESHEET
  1

  9
$XEDIT
290
     1
  9
$CEPSNTYPE
380
     0
  9
$PSTYLEMODE
290
     1
  9
$FINGERPRINTGUID
  2
{727FDF45-C235-4D16-B78C-5D43FC47CC0F}
  9
$VERSIONGUID
  2
{F3D02D73-A5E1-4733-A820-E11BAF816761}
  9
$EXTNAMES
290
     1
  9
$PSVPSCALE
 40
0.0
  9
$OLESTARTUP
290
     0
  0
ENDSEC
  0
SECTION
  2
CLASSES
  0
CLASS
  1
IMAGE
  2
AcDbRasterImage
  3
ISM
 90
      127
280
     0
281
     1
  0
CLASS
  1
DICTIONARYVAR
  2
AcDbDictionaryVar
  3
ObjectDBX Classes
 90
        0
280
     0
281
     0
  0
CLASS
  1
RASTERVARIABLES
  2
AcDbRasterVariables
  3
ISM
 90
        0
280
     0
281
     0
  0
CLASS
  1
IMAGEDEF
  2
AcDbRasterImageDef
  3
ISM
 90
        0
280
     0
281
     0
  0
CLASS
  1
IMAGEDEF_REACTOR
  2
AcDbRasterImageDefReactor
  3
ISM
 90
        1
280
     0
281
     0
  0
CLASS
  1
IDBUFFER
  2
AcDbIdBuffer
  3
ObjectDBX Classes
 90
        0
280
     0
281
     0
  0
CLASS
  1
SPATIAL_FILTER
  2
AcDbSpatialFilter
  3
ObjectDBX Classes
 90
        0
280
     0
281
     0
  0
CLASS
  1
SORTENTSTABLE
  2
AcDbSortentsTable
  3
ObjectDBX Classes
 90
        0
280
     0
281
     0
  0
CLASS
  1
LAYER_INDEX
  2
AcDbLayerIndex
  3
ObjectDBX Classes
 90
        0
280
     0
281
     0
  0
CLASS
  1
SPATIAL_INDEX
  2
AcDbSpatialIndex
  3
AutoCAD 2000
 90
        0
280
     0
281
     0
  0
CLASS
  1
OBJECT_PTR
  2
CAseDLPNTableRecord
  3
ASE-LPNTableRecord
 90
        1
280
     0
281
     0
  0
CLASS
  1
PLOTSETTINGS
  2
AcDbPlotSettings
  3
ObjectDBX Classes
 90
        0
280
     0
281
     0
  0
CLASS
  1
ACDBDICTIONARYWDFLT
  2
AcDbDictionaryWithDefault
  3
ObjectDBX Classes
 90
        0
280
     0
281
     0
  0
CLASS
  1
WIPEOUT
  2
AcDbWipeout
  3
WipeOut|AutoCAD Express Tool|expresstools@autodesk.com
 90
      127
280
     0
281
     1
  0
CLASS
  1
WIPEOUTVARIABLES
  2
AcDbWipeoutVariables
  3
WipeOut|AutoCAD Express Tool|expresstools@autodesk.com
 90
        0
280
     0
281
     0
  0
CLASS
  1
RTEXT
  2
RText
  3
RText|AutoCAD Express Tool|expresstools@autodesk.com
 90
        0
280
     0
281
     1
  0
CLASS
  1
ARCALIGNEDTEXT
  2
AcDbArcAlignedText
  3
ATEXT|AutoCAD Express Tool|expresstools@autodesk.com
 90
        0
280
     0
281
     1
  0
CLASS
  1
ACDBPLACEHOLDER
  2
AcDbPlaceHolder
  3
ObjectDBX Classes
 90
        0
280
     0
281
     0
  0
CLASS
  1
LAYOUT
  2
AcDbLayout
  3
ObjectDBX Classes
 90
        0
280
     0
281
     0
  0
ENDSEC
  0
SECTION
  2
TABLES
  0
TABLE
  2
VPORT
  5
8
330
0
100
AcDbSymbolTable
 70
     1
  0
VPORT
  5
72D
330
8
100
AcDbSymbolTableRecord
100
AcDbViewportTableRecord
  2
*Active
 70
     0
 10
0.0
 20
0.0
 11
1.0
 21
1.0
 12
150.0069566297461
 22
195.1277336183265
 13
0.0
 23
0.0
 14
1.0
 24
1.0
 15
0.0
 25
0.0
 16
0.0
 26
0.0
 36
1.0
 17
0.0
 27
0.0
 37
0.0
 40
482.3188780819271
 41
1.888667992047713
 42
50.0
 43
0.0
 44
0.0
 50
0.0
 51
0.0
 71
     0
 72
   100
 73
     1
 74
     1
 75
     0
 76
     0
 77
     0
 78
     0
281
     0
 65
     1
110
0.0
120
0.0
130
0.0
111
1.0
121
0.0
131
0.0
112
0.0
122
1.0
132
0.0
 79
     0
146
0.0
  0
ENDTAB
  0
TABLE
  2
LTYPE
  5
5
330
0
100
AcDbSymbolTable
 70
     2
  0
LTYPE
  5
14
330
5
100
AcDbSymbolTableRecord
100
AcDbLinetypeTableRecord
  2
BYBLOCK
 70
     0
  3

 72
    65
 73
     0
 40
0.0
  0
LTYPE
  5
15
330
5
100
AcDbSymbolTableRecord
100
AcDbLinetypeTableRecord
  2
BYLAYER
 70
     0
  3

 72
    65
 73
     0
 40
0.0
  0
LTYPE
  5
16
330
5
100
AcDbSymbolTableRecord
100
AcDbLinetypeTableRecord
  2
CONTINUOUS
 70
     0
  3
Solid line
 72
    65
 73
     0
 40
0.0
  0
LTYPE
  5
1F5
330
5
100
AcDbSymbolTableRecord
100
AcDbLinetypeTableRecord
  2
CENTER
 70
     0
  3
____ _ ____ _ ____ _ ____ _ ____ _ ____ _ ____
 72
    65
 73
     4
 40
0.6
 49
0.375
 74
     0
 49
-0.075
 74
     0
 49
0.075
 74
     0
 49
-0.075
 74
     0
  0
ENDTAB
  0
TABLE
  2
LAYER
  5
2
330
0
100
AcDbSymbolTable
 70
     3
  0
LAYER
  5
10
330
2
100
AcDbSymbolTableRecord
100
AcDbLayerTableRecord
  2
0
 70
     0
 62
     7
  6
CONTINUOUS
370
    -3
390
409
  0
LAYER
  5
1FA
330
2
100
AcDbSymbolTableRecord
100
AcDbLayerTableRecord
  2
DEFAULT_1
 70
     0
 62
     7
  6
CENTER
370
    -3
390
409
  0
LAYER
  5
412
330
2
100
AcDbSymbolTableRecord
100
AcDbLayerTableRecord
  2
Defpoints
 70
     0
 62
     7
  6
CONTINUOUS
290
     0
370
    -3
390
409
  0
ENDTAB
  0
TABLE
  2
STYLE
  5
3
330
0
100
AcDbSymbolTable
 70
     1
  0
STYLE
  5
11
330
3
100
AcDbSymbolTableRecord
100
AcDbTextStyleTableRecord
  2
STANDARD
 70
     0
 40
0.0
 41
1.0
 50
0.0
 71
     0
 42
0.2
  3
txt
  4

  0
ENDTAB
  0
TABLE
  2
VIEW
  5
6
330
0
100
AcDbSymbolTable
 70
     0
  0
ENDTAB
  0
TABLE
  2
UCS
  5
7
330
0
100
AcDbSymbolTable
 70
     0
  0
ENDTAB
  0
TABLE
  2
APPID
  5
9
330
0
100
AcDbSymbolTable
 70
     1
  0
APPID
  5
203
330
9
100
AcDbSymbolTableRecord
100
AcDbRegAppTableRecord
  2
ACAD
 70
     0
  0
ENDTAB
  0
TABLE
  2
DIMSTYLE
  5
A
330
0
100
AcDbSymbolTable
 70
     1
100
AcDbDimStyleTable
  0
DIMSTYLE
105
204
330
A
100
AcDbSymbolTableRecord
100
AcDbDimStyleTableRecord
  2
STANDARD
 70
     0
 41
3.0
 47
0.003
 48
0.003
 71
     1
 73
     0
 74
     0
 77
     1
 78
     8
140
1.5
271
     3
272
     3
284
     8
340
11
  0
ENDTAB
  0
TABLE
  2
BLOCK_RECORD
  5
1
330
0
100
AcDbSymbolTable
 70
     0
  0
BLOCK_RECORD
  5
1B
330
1
100
AcDbSymbolTableRecord
100
AcDbBlockTableRecord
  2
*MODEL_SPACE
340
40E
  0
BLOCK_RECORD
  5
1C
330
1
100
AcDbSymbolTableRecord
100
AcDbBlockTableRecord
  2
*PAPER_SPACE
340
40F
  0
ENDTAB
  0
ENDSEC
  0
SECTION
  2
BLOCKS
  0
BLOCK
  5
1E
330
1B
100
AcDbEntity
  8
0
100
AcDbBlockBegin
  2
*MODEL_SPACE
 70
     0
 71
     0
 10
0.0
 20
0.0
 30
0.0
  3
*MODEL_SPACE
  1

  0
ENDBLK
  5
1F
330
1B
100
AcDbEntity
  8
0
100
AcDbBlockEnd
  0
BLOCK
  5
20
330
1C
100
AcDbEntity
 67
     1
  8
0
100
AcDbBlockBegin
  2
*PAPER_SPACE
 70
     0
 71
     0
 10
0.0
 20
0.0
 30
0.0
  3
*PAPER_SPACE
  1

  0
ENDBLK
  5
21
330
1C
100
AcDbEntity
 67
     1
  8
0
100
AcDbBlockEnd
  0
ENDSEC
  0
SECTION
  2
ENTITIES
  0
TEXT
  5
2D8
330
1B
100
AcDbEntity
  8
0
  6
Continuous
 62
     1
100
AcDbText
 10
327.1164300662
 20
31.8278047252
 30
0.0
 40
1.5
  1
 
 41
1.285714285699999
 72
     5
 11
329.0450014948
 21
31.8278047252
 31
0.0
100
AcDbText
  0
LINE
  5
38E
330
1B
100
AcDbEntity
  8
0
  6
Continuous
100
AcDbLine
 10
102.6504433065
 20
154.2332687115
 30
0.0
 11
251.2070676335
 21
154.2332687115
 31
0.0
  0
LINE
  5
38F
330
1B
100
AcDbEntity
  8
0
  6
Continuous
100
AcDbLine
 10
249.1913195888
 20
155.2332687115
 30
0.0
 11
102.6504433064999
 21
155.2332687115
 31
0.0
  0
LINE
  5
390
330
1B
100
AcDbEntity
  8
0
  6
Continuous
100
AcDbLine
 10
102.6504433065
 20
161.1860317205
 30
0.0
 11
251.9742137609
 21
161.1860317205
 31
0.0
  0
LINE
  5
391
330
1B
100
AcDbEntity
  8
0
  6
Continuous
100
AcDbLine
 10
102.6504433064999
 20
162.6407169747
 30
0.0
 11
252.3617681719
 21
162.6407169747
 31
0.0
  0
LINE
  5
392
330
1B
100
AcDbEntity
  8
DEFAULT_1
  6
CENTER
100
AcDbLine
 10
102.6504433065
 20
179.7332687115
 30
0.0
 11
257.3617681719
 21
179.7332687115
 31
0.0
  0
LINE
  5
393
330
1B
100
AcDbEntity
  8
0
  6
Continuous
100
AcDbLine
 10
102.6504433064999
 20
196.8258204483
 30
0.0
 11
252.3617681719
 21
196.8258204483
 31
0.0
  0
LINE
  5
394
330
1B
100
AcDbEntity
  8
0
  6
Continuous
100
AcDbLine
 10
102.6504433065
 20
198.2805057025
 30
0.0
 11
251.9742137609
 21
198.2805057025
 31
0.0
  0
LINE
  5
395
330
1B
100
AcDbEntity
  8
0
  6
Continuous
100
AcDbLine
 10
249.1913195888
 20
204.2332687115
 30
0.0
 11
102.6504433064999
 21
204.2332687115
 31
0.0
  0
LINE
  5
396
330
1B
100
AcDbEntity
  8
0
  6
Continuous
100
AcDbLine
 10
102.6504433065
 20
205.2332687115
 30
0.0
 11
251.2070676335
 21
205.2332687115
 31
0.0
  0
LINE
  5
399
330
1B
100
AcDbEntity
  8
DEFAULT_1
  6
CENTER
100
AcDbLine
 10
202.6504433065
 20
149.2332687115
 30
0.0
 11
202.6504433065
 21
210.0391599067
 31
0.0
  0
LINE
  5
39C
330
1B
100
AcDbEntity
  8
0
  6
Continuous
100
AcDbLine
 10
252.3617681719
 20
196.8258204483
 30
0.0
 11
252.3617681719
 21
162.6407169747
 31
0.0
  0
LINE
  5
39D
330
1B
100
AcDbEntity
  8
0
  6
Continuous
100
AcDbLine
 10
252.6236483872
 20
202.779678873
 30
0.0
 11
252.6236482843
 21
156.6937152968
 31
0.0
  0
LINE
  5
39E
330
1B
100
AcDbEntity
  8
0
  6
Continuous
100
AcDbLine
 10
252.6504433065
 20
202.679678873
 30
0.0
 11
252.6504433065
 21
156.78685855
 31
0.0
  0
LINE
  5
39F
330
1B
100
AcDbEntity
  8
0
  6
Continuous
100
AcDbLine
 10
252.6504433065
 20
156.78685855
 30
0.0
 11
252.6236483872
 21
156.68685855
 31
0.0
  0
LINE
  5
3A0
330
1B
100
AcDbEntity
  8
0
  6
Continuous
100
AcDbLine
 10
252.6236483872
 20
156.68685855
 30
0.0
 11
251.2070676335
 21
154.2332687115
 31
0.0
  0
LINE
  5
3A1
330
1B
100
AcDbEntity
  8
0
  6
Continuous
100
AcDbLine
 10
252.6236483872
 20
202.779678873
 30
0.0
 11
251.2070676335
 21
205.2332687115
 31
0.0
  0
LINE
  5
3A2
330
1B
100
AcDbEntity
  8
0
  6
Continuous
100
AcDbLine
 10
252.6504433065
 20
202.679678873
 30
0.0
 11
252.6236483872
 21
202.779678873
 31
0.0
  0
LINE
  5
3A3
330
1B
100
AcDbEntity
  8
0
  6
Continuous
100
AcDbLine
 10
321.0382937069
 20
154.2332687115
 30
0.0
 11
350.0382937069
 21
154.2332687115
 31
0.0
  0
LINE
  5
3A4
330
1B
100
AcDbEntity
  8
0
  6
Continuous
100
AcDbLine
 10
320.0382937069
 20
204.2332687115
 30
0.0
 11
320.0382937069
 21
198.2805057025
 31
0.0
  0
LINE
  5
3A5
330
1B
100
AcDbEntity
  8
0
  6
Continuous
100
AcDbLine
 10
320.0382937069
 20
161.1860317205
 30
0.0
 11
320.0382937069
 21
155.2332687115
 31
0.0
  0
LINE
  5
3A6
330
1B
100
AcDbEntity
  8
0
  6
Continuous
100
AcDbLine
 10
335.5382937069
 20
180.7832687115
 30
0.0
 11
335.5382937069
 21
178.6832687115
 31
0.0
  0
LINE
  5
3A7
330
1B
100
AcDbEntity
  8
DEFAULT_1
  6
CENTER
100
AcDbLine
 10
335.5382937069
 20
174.4832687115
 30
0.0
 11
335.5382937069
 21
151.2332687115
 31
0.0
  0
LINE
  5
3A8
330
1B
100
AcDbEntity
  8
DEFAULT_1
  6
CENTER
100
AcDbLine
 10
335.5382937069
 20
184.9832687115
 30
0.0
 11
335.5382937069
 21
208.2332687115
 31
0.0
  0
LINE
  5
3A9
330
1B
100
AcDbEntity
  8
0
  6
Continuous
100
AcDbLine
 10
336.5882937069
 20
179.7332687115
 30
0.0
 11
334.4882937069
 21
179.7332687115
 31
0.0
  0
LINE
  5
3AA
330
1B
100
AcDbEntity
  8
DEFAULT_1
  6
CENTER
100
AcDbLine
 10
330.2882937069
 20
179.7332687115
 30
0.0
 11
307.0382937069
 21
179.7332687115
 31
0.0
  0
LINE
  5
3AB
330
1B
100
AcDbEntity
  8
DEFAULT_1
  6
CENTER
100
AcDbLine
 10
340.7882937069
 20
179.7332687115
 30
0.0
 11
364.0382937069
 21
179.7332687115
 31
0.0
  0
LINE
  5
3AC
330
1B
100
AcDbEntity
  8
0
  6
Continuous
100
AcDbLine
 10
351.0382937069
 20
155.2332687115
 30
0.0
 11
351.0382937069
 21
161.1860317205
 31
0.0
  0
LINE
  5
3AD
330
1B
100
AcDbEntity
  8
0
  6
Continuous
100
AcDbLine
 10
351.0382937069
 20
198.2805057025
 30
0.0
 11
351.0382937069
 21
204.2332687115
 31
0.0
  0
LINE
  5
3AE
330
1B
100
AcDbEntity
  8
0
  6
Continuous
100
AcDbLine
 10
350.0382937069
 20
205.2332687115
 30
0.0
 11
321.0382937069
 21
205.2332687115
 31
0.0
  0
ARC
  5
3CF
330
1B
100
AcDbEntity
  8
0
  6
Continuous
100
AcDbCircle
 10
335.5382937069
 20
179.7332687115
 30
0.0
 40
20.955
100
AcDbArc
 50
255.0000000000006
 51
195.0000000000004
  0
ARC
  5
3D0
330
1B
100
AcDbEntity
  8
0
  6
Continuous
100
AcDbCircle
 10
335.5382937069
 20
179.7332687115
 30
0.0
 40
23.5
100
AcDbArc
 50
133.3359227361003
 51
226.6640772639005
  0
ARC
  5
3D1
330
1B
100
AcDbEntity
  8
0
  6
Continuous
100
AcDbCircle
 10
335.5382937069
 20
179.7332687115
 30
0.0
 40
23.5
100
AcDbArc
 50
313.3359227361006
 51
46.66407726390009
  0
ARC
  5
3D2
330
1B
100
AcDbEntity
  8
0
  6
Continuous
100
AcDbCircle
 10
350.0382937069
 20
204.2332687115
 30
0.0
 40
1.0
100
AcDbArc
 50
0.0
 51
90.00000000000019
  0
ARC
  5
3D3
330
1B
100
AcDbEntity
  8
0
  6
Continuous
100
AcDbCircle
 10
321.0382937069
 20
204.2332687115
 30
0.0
 40
1.0
100
AcDbArc
 50
90.00000000000019
 51
180.0000000000004
  0
ARC
  5
3D4
330
1B
100
AcDbEntity
  8
0
  6
Continuous
100
AcDbCircle
 10
350.0382937069
 20
155.2332687115
 30
0.0
 40
1.0
100
AcDbArc
 50
270.0000000000006
 51
360.0000000000008
  0
ARC
  5
3D5
330
1B
100
AcDbEntity
  8
0
  6
Continuous
100
AcDbCircle
 10
321.0382937069
 20
155.2332687115
 30
0.0
 40
1.0
100
AcDbArc
 50
180.0000000000004
 51
270.0000000000006
  0
ARC
  5
3D6
330
1B
100
AcDbEntity
  8
0
  6
Continuous
100
AcDbCircle
 10
318.0382937069
 20
198.2805057025
 30
0.0
 40
2.0
100
AcDbArc
 50
313.3359227361006
 51
360.0000000000008
  0
ARC
  5
3D7
330
1B
100
AcDbEntity
  8
0
  6
Continuous
100
AcDbCircle
 10
353.0382937069
 20
198.2805057025
 30
0.0
 40
2.0
100
AcDbArc
 50
180.0000000000004
 51
226.6640772639005
  0
ARC
  5
3D8
330
1B
100
AcDbEntity
  8
0
  6
Continuous
100
AcDbCircle
 10
353.0382937069
 20
161.1860317205
 30
0.0
 40
2.0
100
AcDbArc
 50
133.3359227361003
 51
180.0000000000004
  0
ARC
  5
3D9
330
1B
100
AcDbEntity
  8
0
  6
Continuous
100
AcDbCircle
 10
318.0382937069
 20
161.1860317205
 30
0.0
 40
2.0
100
AcDbArc
 50
0.0
 51
46.66407726390009
  0
CIRCLE
  5
3DA
330
1B
100
AcDbEntity
  8
0
  6
Continuous
100
AcDbCircle
 10
335.5382937069
 20
179.7332687115
 30
0.0
 40
19.5
  0
CIRCLE
  5
3DB
330
1B
100
AcDbEntity
  8
0
  6
Continuous
100
AcDbCircle
 10
335.5382937069
 20
179.7332687115
 30
0.0
 40
21.3
  0
CIRCLE
  5
3DC
330
1B
100
AcDbEntity
  8
0
  6
Continuous
100
AcDbCircle
 10
335.5382937069
 20
179.7332687115
 30
0.0
 40
19.65
  0
CIRCLE
  5
3DD
330
1B
100
AcDbEntity
  8
0
  6
Continuous
100
AcDbCircle
 10
335.5382937069
 20
179.7332687115
 30
0.0
 40
21.5000000527
  0
CIRCLE
  5
3DE
330
1B
100
AcDbEntity
  8
0
  6
Continuous
100
AcDbCircle
 10
335.5382937069
 20
179.7332687115
 30
0.0
 40
23.0464076188
  0
CIRCLE
  5
3DF
330
1B
100
AcDbEntity
  8
0
  6
Continuous
100
AcDbCircle
 10
335.5382937069
 20
179.7332687115
 30
0.0
 40
22.9464068233
  0
CIRCLE
  5
3E0
330
1B
100
AcDbEntity
  8
0
  6
Continuous
100
AcDbCircle
 10
335.5382937069
 20
179.7332687115
 30
0.0
 40
19.6861696693
  0
SPLINE
  5
3ED
330
1B
100
AcDbEntity
  8
0
  6
Continuous
100
AcDbSpline
210
0.0
220
0.0
230
1.0
 70
     8
 71
     3
 72
    10
 73
     6
 74
     4
 42
0.0000000001
 43
0.0000000001
 44
0.0000000001
 40
0.0
 40
0.0
 40
0.0
 40
0.0
 40
0.5981008615856499
 40
1.105097039551769
 40
1.513850456248407
 40
1.513850456248407
 40
1.513850456248407
 40
1.513850456248407
 10
251.9742137609
 20
198.2805057025
 30
0.0
 10
252.0498245242233
 20
198.096089255853
 30
0.0
 10
252.1895287715727
 20
197.7553472801702
 30
0.0
 10
252.3285297524984
 20
197.2669276639622
 30
0.0
 10
252.3515104998679
 20
196.9619500606792
 30
0.0
 10
252.3617681719
 20
196.8258204483
 30
0.0
 11
251.9742137609
 21
198.2805057025
 31
0.0
 11
252.1898463397
 21
197.7226282683
 31
0.0
 11
252.318821213
 21
197.2323114253
 31
0.0
 11
252.3617681719
 21
196.8258204483
 31
0.0
  0
SPLINE
  5
3EF
330
1B
100
AcDbEntity
  8
0
  6
Continuous
100
AcDbSpline
210
0.0
220
0.0
230
1.0
 70
     8
 71
     3
 72
    10
 73
     6
 74
     4
 42
0.0000000001
 43
0.0000000001
 44
0.0000000001
 40
0.0
 40
0.0
 40
0.0
 40
0.0
 40
0.4099435454766907
 40
0.9174272921534246
 40
1.513848666863694
 40
1.513848666863694
 40
1.513848666863694
 40
1.513848666863694
 10
252.3617681719
 20
162.6407169747
 30
0.0
 10
252.3514557549148
 20
162.5041918741913
 30
0.0
 10
252.3283772288721
 20
162.1986574789002
 30
0.0
 10
252.1891947706021
 20
161.7102894224832
 30
0.0
 10
252.0496223777965
 20
161.3699249316197
 30
0.0
 10
251.9742137609
 20
161.1860317205
 30
0.0
 11
252.3617681719
 21
162.6407169747
 31
0.0
 11
252.3185975135
 21
162.2330528915
 31
0.0
 11
252.1893238544
 21
161.742310521
 31
0.0
 11
251.9742137609
 21
161.1860317205
 31
0.0
  0
SPLINE
  5
3F0
330
1B
100
AcDbEntity
  8
0
  6
Continuous
100
AcDbSpline
210
0.0
220
0.0
230
1.0
 70
     8
 71
     3
 72
    11
 73
     7
 74
     5
 42
0.0000000001
 43
0.0000000001
 44
0.0000000001
 40
0.0
 40
0.0
 40
0.0
 40
0.0
 40
0.4166359301101629
 40
0.7581134706943208
 40
0.9763629791048976
 40
1.076969762726067
 40
1.076969762726067
 40
1.076969762726067
 40
1.076969762726067
 10
249.1913195888
 20
155.2332687115
 30
0.0
 10
249.1315545981504
 20
155.1054356329518
 30
0.0
 10
249.0228058292304
 20
154.872829724906
 30
0.0
 10
248.9478001122287
 20
154.5754588207444
 30
0.0
 10
248.8774496423879
 20
154.3248962433445
 30
0.0
 10
248.9655478016331
 20
154.2552452615353
 30
0.0
 10
248.9933448772
 20
154.2332687115
 30
0.0
 11
249.1913195888
 21
155.2332687115
 31
0.0
 11
249.0272797679
 21
154.8502851147
 31
0.0
 11
248.9321428257
 21
154.5223279941
 31
0.0
 11
248.9221062098
 21
154.3043093842
 31
0.0
 11
248.9933448772
 21
154.2332687115
 31
0.0
  0
SPLINE
  5
3F2
330
1B
100
AcDbEntity
  8
0
  6
Continuous
100
AcDbSpline
210
0.0
220
0.0
230
1.0
 70
     8
 71
     3
 72
    11
 73
     7
 74
     5
 42
0.0000000001
 43
0.0000000001
 44
0.0000000001
 40
0.0
 40
0.0
 40
0.0
 40
0.0
 40
0.1006067836917731
 40
0.3188562920024396
 40
0.6603338325865975
 40
1.076969762696787
 40
1.076969762696787
 40
1.076969762696787
 40
1.076969762696787
 10
248.9933448772
 20
205.2332687115
 30
0.0
 10
248.9655478016298
 20
205.211292161431
 30
0.0
 10
248.8774496424444
 20
205.1416411795702
 30
0.0
 10
248.9478001122128
 20
204.8910786022447
 30
0.0
 10
249.0228058292391
 20
204.5937076980868
 30
0.0
 10
249.1315545981535
 20
204.3611017900457
 30
0.0
 10
249.1913195888
 20
204.2332687115
 30
0.0
 11
248.9933448772
 21
205.2332687115
 31
0.0
 11
248.9221062098
 21
205.1622280387
 31
0.0
 11
248.9321428257
 21
204.9442094289
 31
0.0
 11
249.0272797679
 21
204.6162523083
 31
0.0
 11
249.1913195888
 21
204.2332687115
 31
0.0
  0
SPLINE
  5
3F3
330
1B
100
AcDbEntity
  8
0
  6
Continuous
100
AcDbSpline
210
0.0
220
0.0
230
1.0
 70
     8
 71
     3
 72
    10
 73
     6
 74
     4
 42
0.0000000001
 43
0.0000000001
 44
0.0000000001
 40
0.0
 40
0.0
 40
0.0
 40
0.0
 40
2.318785118561558
 40
4.507222261808355
 40
6.57146853975575
 40
6.57146853975575
 40
6.57146853975575
 40
6.57146853975575
 10
249.1913195888
 20
155.2332687115
 30
0.0
 10
249.528214448903
 20
155.9289154785165
 30
0.0
 10
250.1830659921486
 20
157.2811039885915
 30
0.0
 10
251.112508817394
 20
159.2647540392464
 30
0.0
 10
251.6926258207076
 20
160.5581966025993
 30
0.0
 10
251.9742137609
 20
161.1860317205
 30
0.0
 11
249.1913195888
 21
155.2332687115
 31
0.0
 11
250.1974074925
 21
157.322419629
 31
0.0
 11
251.1244158794
 21
159.3048203404
 31
0.0
 11
251.9742137609
 21
161.1860317205
 31
0.0
  0
SPLINE
  5
3F7
330
1B
100
AcDbEntity
  8
0
  6
Continuous
100
AcDbSpline
210
0.0
220
0.0
230
1.0
 70
     8
 71
     3
 72
    10
 73
     6
 74
     4
 42
0.0000000001
 43
0.0000000001
 44
0.0000000001
 40
0.0
 40
0.0
 40
0.0
 40
0.0
 40
2.060482071266174
 40
4.248656242312167
 40
6.57146856129337
 40
6.57146856129337
 40
6.57146856129337
 40
6.57146856129337
 10
251.9742137609
 20
198.2805057025
 30
0.0
 10
251.6931440345575
 20
198.9071980295738
 30
0.0
 10
251.1135861417698
 20
200.1994200316779
 30
0.0
 10
250.1841892209859
 20
202.1830916084813
 30
0.0
 10
249.5287965730132
 20
203.5364122830217
 30
0.0
 10
249.1913195888
 20
204.2332687115
 30
0.0
 11
251.9742137609
 21
198.2805057025
 31
0.0
 11
251.1259887959
 21
200.1582971645
 31
0.0
 11
250.1991349149
 21
202.1404798216
 31
0.0
 11
249.1913195888
 21
204.2332687115
 31
0.0
  0
SPLINE
  5
3F8
330
1B
100
AcDbEntity
  8
0
  6
Continuous
100
AcDbSpline
210
0.0
220
0.0
230
1.0
 70
    24
 71
     3
 72
     8
 73
     4
 74
     2
 42
0.0000000001
 43
0.0000000001
 44
0.0000000001
 40
0.0
 40
0.0
 40
0.0
 40
0.0
 40
0.222496238330672
 40
0.222496238330672
 40
0.222496238330672
 40
0.222496238330672
 10
315.8882937069
 20
179.7332687115
 30
88.0
 10
315.8888298902333
 20
179.6591052369334
 30
88.0
 10
315.8893660735666
 20
179.5849417623667
 30
88.0
 10
315.8899022569
 20
179.5107782878
 30
88.0
 11
315.8882937069
 21
179.7332687115
 31
88.0
 11
315.8899022569
 21
179.5107782878
 31
88.0
  0
SPLINE
  5
3F9
330
1B
100
AcDbEntity
  8
0
  6
Continuous
100
AcDbSpline
210
0.0
220
0.0
230
1.0
 70
     8
 71
     3
 72
    15
 73
    11
 74
     9
 42
0.0000000001
 43
0.0000000001
 44
0.0000000001
 40
0.0
 40
0.0
 40
0.0
 40
0.0
 40
3.630553113046286
 40
7.482626728045826
 40
11.33470034303097
 40
15.18677395790185
 40
19.0388475729135
 40
22.89092118789866
 40
26.74299480280251
 40
30.59506841772991
 40
30.59506841772991
 40
30.59506841772991
 40
30.59506841772991
 10
315.8899022569
 20
179.5107782878
 30
88.0
 10
315.9686443571794
 20
178.2997237544836
 30
88.0
 10
316.1309330569525
 20
175.8037214270281
 30
88.0
 10
317.2758970052471
 20
172.1651628402129
 30
88.0
 10
319.0922209629284
 20
168.7457523831942
 30
88.0
 10
321.5547140941189
 20
165.7497094228001
 30
88.0
 10
324.5507954003974
 20
163.2871326926081
 30
88.0
 10
327.970136072852
 20
161.4711047849847
 30
88.00000000000001
 10
331.680045874019
 20
160.3026635531284
 30
88.0
 10
334.2522110959371
 20
160.1564003253763
 30
88.0
 10
335.5382937069
 20
160.0832687115
 30
88.0
 11
315.8899022569
 21
179.5107782878
 31
88.0
 11
316.265862947
 21
175.8997438839
 31
88.0
 11
317.3840608931
 21
172.2135392655
 31
88.0
 11
319.1999158252
 21
168.8163136326
 31
88.0
 11
321.6436454566
 21
165.8386204612
 31
88.0
 11
324.6213386281
 21
163.3948908297
 31
88.0
 11
328.018564261
 21
161.5790358976
 31
88.0
 11
331.7047688793
 21
160.4608379515
 31
88.0
 11
335.5382937069
 21
160.0832687115
 31
88.0
  0
SPLINE
  5
3FA
330
1B
100
AcDbEntity
  8
0
  6
Continuous
100
AcDbSpline
210
-1.100000000000000E-15
220
1.200000000000000E-15
230
-1.0
 70
     8
 71
     3
 72
    15
 73
    11
 74
     9
 42
0.0000000001
 43
0.0000000001
 44
0.0000000001
 40
0.0
 40
0.0
 40
0.0
 40
0.0
 40
3.852073615026899
 40
7.704147229930756
 40
11.55622084491591
 40
15.40829445992756
 40
19.26036807479845
 40
23.11244168978362
 40
26.96451530478316
 40
30.46265667777801
 40
30.46265667777801
 40
30.46265667777801
 40
30.46265667777801
 10
335.5382937069
 20
160.0832687115
 30
88.0
 10
336.8243762545088
 20
160.1564003137345
 30
88.0
 10
339.3965413496852
 20
160.3026635182013
 30
88.00000000000001
 10
343.1064521017033
 20
161.4711049246514
 30
88.0
 10
346.5257891610453
 20
163.2871321688585
 30
88.00000000000001
 10
349.5218839689544
 20
165.7497113781319
 30
87.99999999999999
 10
351.9843267067353
 20
168.7457450856164
 30
88.00000000000001
 10
353.8008387364249
 20
172.1651900751922
 30
87.99999999999999
 10
354.9317468413386
 20
175.7611181640269
 30
88.0
 10
355.1030504890282
 20
178.211605629612
 30
88.0
 10
355.1845779516
 20
179.3778506444
 30
88.0
 11
335.5382937069
 21
160.0832687115
 31
88.0
 11
339.3718185346
 21
160.4608379515
 31
88.0
 11
343.0580231529
 21
161.5790358976
 31
88.0
 11
346.4552487858
 21
163.3948908297
 31
88.0
 11
349.4329419573
 21
165.8386204612
 31
88.0
 11
351.8766715887
 21
168.8163136326
 31
88.0
 11
353.6925265208
 21
172.2135392655
 31
88.0
 11
354.8107244669
 21
175.8997438839
 31
88.0
 11
355.1845779516
 21
179.3778506444
 31
88.0
  0
SPLINE
  5
3FB
330
1B
100
AcDbEntity
  8
0
  6
Continuous
100
AcDbSpline
210
0.0
220
0.0
230
1.0
 70
    24
 71
     3
 72
     8
 73
     4
 74
     2
 42
0.0000000001
 43
0.0000000001
 44
0.0000000001
 40
0.0
 40
0.0
 40
0.0
 40
0.0
 40
0.3554374899451837
 40
0.3554374899451837
 40
0.3554374899451837
 40
0.3554374899451837
 10
355.1845779516
 20
179.3778506444
 30
88.0
 10
355.1858165367
 20
179.4963233334334
 30
88.0
 10
355.1870551218001
 20
179.6147960224667
 30
88.0
 10
355.1882937069
 20
179.7332687115
 30
88.0
 11
355.1845779516
 21
179.3778506444
 31
88.0
 11
355.1882937069
 21
179.7332687115
 31
88.0
  0
SPLINE
  5
3FC
330
1B
100
AcDbEntity
  8
0
  6
Continuous
100
AcDbSpline
210
0.0
220
0.0
230
1.0
 70
    24
 71
     3
 72
     8
 73
     4
 74
     2
 42
0.0000000001
 43
0.0000000001
 44
0.0000000001
 40
0.0
 40
0.0
 40
0.0
 40
0.0
 40
0.2224962381299797
 40
0.2224962381299797
 40
0.2224962381299797
 40
0.2224962381299797
 10
355.1882937069
 20
179.7332687115
 30
88.0
 10
355.1877575236
 20
179.807432186
 30
88.0
 10
355.1872213403
 20
179.8815956605
 30
88.0
 10
355.186685157
 20
179.955759135
 30
88.0
 11
355.1882937069
 21
179.7332687115
 31
88.0
 11
355.186685157
 21
179.955759135
 31
88.0
  0
SPLINE
  5
3FD
330
1B
100
AcDbEntity
  8
0
  6
Continuous
100
AcDbSpline
210
0.0
220
0.0
230
1.0
 70
     8
 71
     3
 72
    15
 73
    11
 74
     9
 42
0.0000000001
 43
0.0000000001
 44
0.0000000001
 40
0.0
 40
0.0
 40
0.0
 40
0.0
 40
3.630553113245181
 40
7.482626728149038
 40
11.33470034313421
 40
15.18677395808241
 40
19.03884757303061
 40
22.89092118801576
 40
26.74299480291962
 40
30.59506841795632
 40
30.59506841795632
 40
30.59506841795632
 40
30.59506841795632
 10
355.186685157
 20
179.955759135
 30
88.0
 10
355.1079430567292
 20
181.1668136683844
 30
88.0
 10
354.9456543569805
 20
183.6628159958777
 30
88.0
 10
353.8006904086358
 20
187.301374582719
 30
88.0
 10
351.9843664509374
 20
190.7207850397074
 30
88.0
 10
349.5218733198497
 20
193.7168280002038
 30
87.99999999999999
 10
346.525792013462
 20
196.1794047302757
 30
88.00000000000003
 10
343.1064513410546
 20
197.9954326379288
 30
88.0
 10
339.3965415398417
 20
199.1638738697547
 30
88.00000000000001
 10
336.8243763178954
 20
199.3101370975841
 30
88.0
 10
335.5382937069
 20
199.3832687115
 30
88.0
 11
355.186685157
 21
179.955759135
 31
88.0
 11
354.8107244669
 21
183.5667935391
 31
88.0
 11
353.6925265208
 21
187.2529981574
 31
88.0
 11
351.8766715887
 21
190.6502237903
 31
88.0
 11
349.4329419573
 21
193.6279169618
 31
88.0
 11
346.4552487858
 21
196.0716465932
 31
88.0
 11
343.0580231529
 21
197.8875015253
 31
88.0
 11
339.3718185346
 21
199.0056994714
 31
88.0
 11
335.5382937069
 21
199.3832687115
 31
88.0
  0
SPLINE
  5
3FE
330
1B
100
AcDbEntity
  8
0
  6
Continuous
100
AcDbSpline
210
3.600000000000000E-15
220
-3.900000000000000E-15
230
1.0
 70
     8
 71
     3
 72
    15
 73
    11
 74
     9
 42
0.0000000001
 43
0.0000000001
 44
0.0000000001
 40
0.0
 40
0.0
 40
0.0
 40
0.0
 40
3.852073614937196
 40
7.704147229841054
 40
11.55622084482621
 40
15.40829445977441
 40
19.26036807472261
 40
23.11244168970775
 40
26.96451530461161
 40
30.46265667790471
 40
30.46265667790471
 40
30.46265667790471
 40
30.46265667790471
 10
335.5382937069
 20
199.3832687115
 30
88.0
 10
334.2522111593263
 20
199.3101371092201
 30
88.0
 10
331.68004606419
 20
199.1638739046608
 30
88.0
 10
327.9701353121903
 20
197.9954324982625
 30
88.00000000000001
 10
324.5507982528951
 20
196.1794052540252
 30
88.0
 10
321.5547034448769
 20
193.716826044872
 30
87.99999999999999
 10
319.0922607071989
 20
190.7207923372852
 30
88.00000000000003
 10
317.2757486774926
 20
187.3013473477395
 30
87.99999999999997
 10
316.1448405725173
 20
183.7054192588471
 30
88.00000000000003
 10
315.9735369248607
 20
181.2549317931897
 30
88.00000000000001
 10
315.8920094623
 20
180.0886867783
 30
88.0
 11
335.5382937069
 21
199.3832687115
 31
88.0
 11
331.7047688793
 21
199.0056994714
 31
88.0
 11
328.018564261
 21
197.8875015253
 31
88.0
 11
324.6213386281
 21
196.0716465932
 31
88.0
 11
321.6436454566
 21
193.6279169618
 31
88.0
 11
319.1999158252
 21
190.6502237903
 31
88.0
 11
317.3840608931
 21
187.2529981574
 31
88.0
 11
316.265862947
 21
183.5667935391
 31
88.0
 11
315.8920094623
 21
180.0886867783
 31
88.0
  0
SPLINE
  5
3FF
330
1B
100
AcDbEntity
  8
0
  6
Continuous
100
AcDbSpline
210
0.0
220
0.0
230
1.0
 70
    24
 71
     3
 72
     8
 73
     4
 74
     2
 42
0.0000000001
 43
0.0000000001
 44
0.0000000001
 40
0.0
 40
0.0
 40
0.0
 40
0.0
 40
0.3554374896462821
 40
0.3554374896462821
 40
0.3554374896462821
 40
0.3554374896462821
 10
315.8920094623
 20
180.0886867783
 30
88.0
 10
315.8907708771667
 20
179.9702140893667
 30
88.0
 10
315.8895322920333
 20
179.8517414004333
 30
88.0
 10
315.8882937069
 20
179.7332687115
 30
88.0
 11
315.8920094623
 21
180.0886867783
 31
88.0
 11
315.8882937069
 21
179.7332687115
 31
88.0
  0
SPLINE
  5
658
330
1B
100
AcDbEntity
  8
0
  6
Continuous
100
AcDbSpline
210
0.0
220
0.0
230
1.0
 70
     8
 71
     3
 72
    11
 73
     7
 74
     5
 42
0.0000000001
 43
0.0000000001
 44
0.0000000001
 40
0.0
 40
0.0
 40
0.0
 40
0.0
 40
0.1006067836919799
 40
0.3188562921025573
 40
0.6603338327145701
 40
1.07696976282473
 40
1.07696976282473
 40
1.07696976282473
 40
1.07696976282473
 10
-43.69245826429998
 20
154.2332687115
 30
0.0
 10
-43.66466118869256
 20
154.2552452615303
 30
0.0
 10
-43.57656302936156
 20
154.3248962432905
 30
0.0
 10
-43.64691349922261
 20
154.5754588207754
 30
0.0
 10
-43.7219192163642
 20
154.8728297248797
 30
0.0
 10
-43.83066798526383
 20
155.1054356329454
 30
0.0
 10
-43.89043297589998
 20
155.2332687115
 30
0.0
 11
-43.69245826429998
 21
154.2332687115
 31
0.0
 11
-43.62121959679998
 21
154.3043093842
 31
0.0
 11
-43.63125621269999
 21
154.5223279941
 31
0.0
 11
-43.72639315499998
 21
154.8502851147
 31
0.0
 11
-43.89043297589998
 21
155.2332687115
 31
0.0
  0
SPLINE
  5
659
330
1B
100
AcDbEntity
  8
0
  6
Continuous
100
AcDbSpline
210
0.0
220
0.0
230
1.0
 70
     8
 71
     3
 72
    10
 73
     6
 74
     4
 42
0.0000000001
 43
0.0000000001
 44
0.0000000001
 40
0.0
 40
0.0
 40
0.0
 40
0.0
 40
2.059750483370088
 40
4.247860113686298
 40
6.571468565408754
 40
6.571468565408754
 40
6.571468565408754
 40
6.571468565408754
 10
-46.67332714789998
 20
198.2805057025
 30
0.0
 10
-46.39235813750395
 20
198.9069759234503
 30
0.0
 10
-45.81291074225904
 20
200.1989566198853
 30
0.0
 10
-44.8835228332532
 20
202.1826324213297
 30
0.0
 10
-44.22802503890799
 20
203.5361731460265
 30
0.0
 10
-43.89043297589998
 20
204.2332687115
 30
0.0
 11
-46.67332714789998
 21
198.2805057025
 31
0.0
 11
-45.82540787599998
 21
200.1576324862
 31
0.0
 11
-44.89858978539998
 21
202.1397606307
 31
0.0
 11
-43.89043297589998
 21
204.2332687115
 31
0.0
  0
SPLINE
  5
65A
330
1B
100
AcDbEntity
  8
0
  6
Continuous
100
AcDbSpline
210
0.0
220
0.0
230
1.0
 70
     8
 71
     3
 72
    10
 73
     6
 74
     4
 42
0.0000000001
 43
0.0000000001
 44
0.0000000001
 40
0.0
 40
0.0
 40
0.0
 40
0.0
 40
2.319570004797372
 40
4.507948373332359
 40
6.571468543927586
 40
6.571468543927586
 40
6.571468543927586
 40
6.571468543927586
 10
-43.89043297589998
 20
155.2332687115
 30
0.0
 10
-44.22744129074803
 20
155.9291512365322
 30
0.0
 10
-44.88239720135933
 20
157.2815581439595
 30
0.0
 10
-45.81183112005836
 20
159.2652123706253
 30
0.0
 10
-46.3918391718769
 20
160.5584170436723
 30
0.0
 10
-46.67332714789998
 20
161.1860317205
 30
0.0
 11
-43.89043297589998
 21
155.2332687115
 31
0.0
 11
-44.89685755349998
 21
157.3231286534
 31
0.0
 11
-45.82383268479999
 21
159.3054800324
 31
0.0
 11
-46.67332714789998
 21
161.1860317205
 31
0.0
  0
SPLINE
  5
65D
330
1B
100
AcDbEntity
  8
0
  6
Continuous
100
AcDbSpline
210
0.0
220
0.0
230
1.0
 70
     8
 71
     3
 72
    11
 73
     7
 74
     5
 42
0.0000000001
 43
0.0000000001
 44
0.0000000001
 40
0.0
 40
0.0
 40
0.0
 40
0.0
 40
0.4166359301101862
 40
0.758113470722199
 40
0.9763629790328662
 40
1.07696976279545
 40
1.07696976279545
 40
1.07696976279545
 40
1.07696976279545
 10
-43.89043297589998
 20
204.2332687115
 30
0.0
 10
-43.83066798526692
 20
204.361101790052
 30
0.0
 10
-43.7219192163729
 20
204.5937076981131
 30
0.0
 10
-43.64691349920679
 20
204.8910786022138
 30
0.0
 10
-43.57656302941795
 20
205.1416411796242
 30
0.0
 10
-43.66466118868932
 20
205.211292161436
 30
0.0
 10
-43.69245826429998
 20
205.2332687115
 30
0.0
 11
-43.89043297589998
 21
204.2332687115
 31
0.0
 11
-43.72639315499998
 21
204.6162523083
 31
0.0
 11
-43.63125621269999
 21
204.9442094289
 31
0.0
 11
-43.62121959679998
 21
205.1622280387
 31
0.0
 11
-43.69245826429998
 21
205.2332687115
 31
0.0
  0
SPLINE
  5
660
330
1B
100
AcDbEntity
  8
0
  6
Continuous
100
AcDbSpline
210
0.0
220
0.0
230
1.0
 70
     8
 71
     3
 72
    10
 73
     6
 74
     4
 42
0.0000000001
 43
0.0000000001
 44
0.0000000001
 40
0.0
 40
0.0
 40
0.0
 40
0.0
 40
0.5981008616217008
 40
1.105097039465655
 40
1.513850456261756
 40
1.513850456261756
 40
1.513850456261756
 40
1.513850456261756
 10
-46.67332714789998
 20
161.1860317205
 30
0.0
 10
-46.74893791127576
 20
161.3704481671408
 30
0.0
 10
-46.8886421587028
 20
161.7111901427651
 30
0.0
 10
-47.0276431394929
 20
162.199609759016
 30
0.0
 10
-47.05062388686433
 20
162.5045873622889
 30
0.0
 10
-47.06088155889998
 20
162.6407169747
 30
0.0
 11
-46.67332714789998
 21
161.1860317205
 31
0.0
 11
-46.88895972679999
 21
161.7439091547
 31
0.0
 11
-47.01793459999998
 21
162.2342259976
 31
0.0
 11
-47.06088155889998
 21
162.6407169747
 31
0.0
  0
SPLINE
  5
662
330
1B
100
AcDbEntity
  8
0
  6
Continuous
100
AcDbSpline
210
0.0
220
0.0
230
1.0
 70
     8
 71
     3
 72
    10
 73
     6
 74
     4
 42
0.0000000001
 43
0.0000000001
 44
0.0000000001
 40
0.0
 40
0.0
 40
0.0
 40
0.0
 40
0.4099435453667013
 40
0.9174272920434572
 40
1.513848666883054
 40
1.513848666883054
 40
1.513848666883054
 40
1.513848666883054
 10
-47.06088155889998
 20
196.8258204483
 30
0.0
 10
-47.05056914195285
 20
196.9623455487756
 30
0.0
 10
-47.02749061599201
 20
197.267879944038
 30
0.0
 10
-46.88830815769065
 20
197.7562480004616
 30
0.0
 10
-46.7487357648324
 20
198.096612491349
 30
0.0
 10
-46.67332714789998
 20
198.2805057025
 30
0.0
 11
-47.06088155889998
 21
196.8258204483
 31
0.0
 11
-47.01771090059998
 21
197.2334845314
 31
0.0
 11
-46.88843724149998
 21
197.7242269019
 31
0.0
 11
-46.67332714789998
 21
198.2805057025
 31
0.0
  0
LINE
  5
66A
330
1B
100
AcDbEntity
  8
DEFAULT_1
  6
CENTER
100
AcDbLine
 10
102.6504433065
 20
149.2332687115
 30
0.0
 11
102.6504433065
 21
210.0391599067001
 31
0.0
  0
LINE
  5
66B
330
1B
100
AcDbEntity
  8
0
  6
Continuous
100
AcDbLine
 10
-45.9061810205
 20
205.2332687115
 30
0.0
 11
102.6504433065
 21
205.2332687115
 31
0.0
  0
LINE
  5
66C
330
1B
100
AcDbEntity
  8
0
  6
Continuous
100
AcDbLine
 10
102.6504433065
 20
204.2332687115
 30
0.0
 11
-43.89043297589999
 21
204.2332687115
 31
0.0
  0
LINE
  5
66D
330
1B
100
AcDbEntity
  8
0
  6
Continuous
100
AcDbLine
 10
-46.67332714789999
 20
198.2805057025
 30
0.0
 11
102.6504433065
 21
198.2805057025
 31
0.0
  0
LINE
  5
66E
330
1B
100
AcDbEntity
  8
0
  6
Continuous
100
AcDbLine
 10
-47.06088155889999
 20
196.8258204483
 30
0.0
 11
102.6504433065
 21
196.8258204483
 31
0.0
  0
LINE
  5
66F
330
1B
100
AcDbEntity
  8
DEFAULT_1
  6
CENTER
100
AcDbLine
 10
-52.06088155889999
 20
179.7332687115
 30
0.0
 11
102.6504433064999
 21
179.7332687115
 31
0.0
  0
LINE
  5
670
330
1B
100
AcDbEntity
  8
0
  6
Continuous
100
AcDbLine
 10
-47.06088155889999
 20
162.6407169747
 30
0.0
 11
102.6504433065
 21
162.6407169747
 31
0.0
  0
LINE
  5
671
330
1B
100
AcDbEntity
  8
0
  6
Continuous
100
AcDbLine
 10
-46.67332714789999
 20
161.1860317205
 30
0.0
 11
102.6504433065
 21
161.1860317205
 31
0.0
  0
LINE
  5
672
330
1B
100
AcDbEntity
  8
0
  6
Continuous
100
AcDbLine
 10
102.6504433065
 20
155.2332687115
 30
0.0
 11
-43.89043297589999
 21
155.2332687115
 31
0.0
  0
LINE
  5
673
330
1B
100
AcDbEntity
  8
0
  6
Continuous
100
AcDbLine
 10
-45.9061810205
 20
154.2332687115
 30
0.0
 11
102.6504433065
 21
154.2332687115
 31
0.0
  0
LINE
  5
674
330
1B
100
AcDbEntity
  8
DEFAULT_1
  6
CENTER
100
AcDbLine
 10
2.650443306500008
 20
150.275909311
 30
0.0
 11
2.650443306500008
 21
208.3116092031001
 31
0.0
  0
LINE
  5
675
330
1B
100
AcDbEntity
  8
0
  6
Continuous
100
AcDbLine
 10
-45.9061810205
 20
154.2332687115
 30
0.0
 11
-47.32276177429999
 21
156.68685855
 31
0.0
  0
LINE
  5
676
330
1B
100
AcDbEntity
  8
0
  6
Continuous
100
AcDbLine
 10
-45.9061810205
 20
205.2332687115
 30
0.0
 11
-47.32276177429999
 21
202.779678873
 31
0.0
  0
LINE
  5
677
330
1B
100
AcDbEntity
  8
0
  6
Continuous
100
AcDbLine
 10
-47.06088155889999
 20
196.8258204483
 30
0.0
 11
-47.06088155889999
 21
162.6407169747
 31
0.0
  0
LINE
  5
678
330
1B
100
AcDbEntity
  8
0
  6
Continuous
100
AcDbLine
 10
-47.32276177429999
 20
156.68685855
 30
0.0
 11
-47.3227616857
 21
202.7727302039
 31
0.0
  0
LINE
  5
679
330
1B
100
AcDbEntity
  8
0
  6
Continuous
100
AcDbLine
 10
-47.34955669349999
 20
156.78685855
 30
0.0
 11
-47.34955669349999
 21
202.679678873
 31
0.0
  0
LINE
  5
67A
330
1B
100
AcDbEntity
  8
0
  6
Continuous
100
AcDbLine
 10
-47.32276177429999
 20
156.68685855
 30
0.0
 11
-47.34955669349999
 21
156.78685855
 31
0.0
  0
LINE
  5
67B
330
1B
100
AcDbEntity
  8
0
  6
Continuous
100
AcDbLine
 10
-47.32276177429999
 20
202.779678873
 30
0.0
 11
-47.34955669349999
 21
202.679678873
 31
0.0
  0
ENDSEC
  0
SECTION
  2
OBJECTS
  0
DICTIONARY
  5
400
330
0
100
AcDbDictionary
281
     1
  3
ACAD_COLOR
350
40B
  3
ACAD_GROUP
350
401
  3
ACAD_LAYOUT
350
40C
  3
ACAD_MATERIAL
350
40A
  3
ACAD_MLINESTYLE
350
402
  3
ACAD_PLOTSETTINGS
350
40D
  3
ACAD_PLOTSTYLENAME
350
408
  3
ACDBHEADERROUNDTRIPXREC
350
736
  3
AcDbVariableDictionary
350
72E
  0
DICTIONARY
  5
40B
102
{ACAD_REACTORS
330
400
102
}
330
400
100
AcDbDictionary
281
     1
  0
DICTIONARY
  5
401
102
{ACAD_REACTORS
330
400
102
}
330
400
100
AcDbDictionary
281
     1
  0
DICTIONARY
  5
40C
102
{ACAD_REACTORS
330
400
102
}
330
400
100
AcDbDictionary
281
     1
  3
Layout1
350
40F
  3
Model
350
40E
  0
DICTIONARY
  5
40A
102
{ACAD_REACTORS
330
400
102
}
330
400
100
AcDbDictionary
281
     1
  0
DICTIONARY
  5
402
102
{ACAD_REACTORS
330
400
102
}
330
400
100
AcDbDictionary
281
     1
  3
STANDARD
350
403
  0
DICTIONARY
  5
40D
102
{ACAD_REACTORS
330
400
102
}
330
400
100
AcDbDictionary
281
     1
  0
ACDBDICTIONARYWDFLT
  5
408
102
{ACAD_REACTORS
330
400
102
}
330
400
100
AcDbDictionary
281
     1
  3
Normal
350
409
100
AcDbDictionaryWithDefault
340
409
  0
DICTIONARY
  5
736
102
{ACAD_REACTORS
330
400
102
}
330
400
100
AcDbDictionary
281
     1
  3
COLORDICT
350
737
  3
MATERIALDICT
350
738
  0
DICTIONARY
  5
72E
102
{ACAD_REACTORS
330
400
102
}
330
400
100
AcDbDictionary
281
     1
  0
LAYOUT
  5
40F
102
{ACAD_REACTORS
330
40C
102
}
330
40C
100
AcDbPlotSettings
  1

  2
\\kessel\HP DesignJet 1050C by HP
  4

  6

 40
0.0
 41
0.0
 42
0.0
 43
0.0
 44
0.0
 45
0.0
 46
0.0
 47
0.0
 48
0.0
 49
0.0
140
0.0
141
0.0
142
1.0
143
1.0
 70
   688
 72
     0
 73
     0
 74
     5
  7

 75
    16
147
1.0
148
0.0
149
0.0
100
AcDbLayout
  1
Layout1
 70
     0
 71
     1
 10
0.0
 20
0.0
 11
12.0
 21
9.0
 12
0.0
 22
0.0
 32
0.0
 14
1.000000000000000E+20
 24
1.000000000000000E+20
 34
1.000000000000000E+20
 15
-1.000000000000000E+20
 25
-1.000000000000000E+20
 35
-1.000000000000000E+20
146
0.0
 13
0.0
 23
0.0
 33
0.0
 16
1.0
 26
0.0
 36
0.0
 17
0.0
 27
1.0
 37
0.0
 76
     0
330
1C
  0
LAYOUT
  5
40E
102
{ACAD_REACTORS
330
40C
102
}
330
40C
100
AcDbPlotSettings
  1

  2
\\kessel\HP DesignJet 1050C by HP
  4

  6

 40
0.0
 41
0.0
 42
0.0
 43
0.0
 44
0.0
 45
0.0
 46
0.0
 47
0.0
 48
0.0
 49
0.0
140
0.0
141
0.0
142
1.0
143
1.0
 70
  1712
 72
     0
 73
     0
 74
     0
  7

 75
     0
147
1.0
148
0.0
149
0.0
100
AcDbLayout
  1
Model
 70
     1
 71
     0
 10
0.0
 20
0.0
 11
12.0
 21
9.0
 12
0.0
 22
0.0
 32
0.0
 14
0.0
 24
0.0
 34
0.0
 15
0.0
 25
0.0
 35
0.0
146
0.0
 13
0.0
 23
0.0
 33
0.0
 16
1.0
 26
0.0
 36
0.0
 17
0.0
 27
1.0
 37
0.0
 76
     0
330
1B
  0
MLINESTYLE
  5
403
102
{ACAD_REACTORS
330
402
102
}
330
402
100
AcDbMlineStyle
  2
STANDARD
 70
     0
  3

 62
   256
 51
90.00000000000019
 52
90.00000000000019
 71
     2
 49
0.5
 62
   256
  6
BYLAYER
 49
-0.5
 62
   256
  6
BYLAYER
  0
ACDBPLACEHOLDER
  5
409
102
{ACAD_REACTORS
330
408
102
}
330
408
  0
XRECORD
  5
737
102
{ACAD_REACTORS
330
736
102
}
330
736
100
AcDbXrecord
280
     1
340
40B
  0
XRECORD
  5
738
102
{ACAD_REACTORS
330
736
102
}
330
736
100
AcDbXrecord
280
     1
340
40A
  0
ENDSEC
  0
EOF
