  0
SECTION
  2
HEADER
  9
$ACADVER
  1
AC1015
  9
$ACADMAINTVER
 70
     6
  9
$DWGCODEPAGE
  3
ANSI_1252
  9
$INSBASE
 10
0.0
 20
0.0
 30
0.0
  9
$EXTMIN
 10
2747.116518310379
 20
1493.871645239833
 30
0.0
  9
$EXTMAX
 10
3824.348813189383
 20
2014.268558953097
 30
275.0
  9
$LIMMIN
 10
0.0
 20
0.0
  9
$LIMMAX
 10
594.0
 20
420.0
  9
$ORTHOMODE
 70
     0
  9
$REGENMODE
 70
     1
  9
$FILLMODE
 70
     1
  9
$QTEXTMODE
 70
     0
  9
$MIRRTEXT
 70
     1
  9
$LTSCALE
 40
32.67
  9
$ATTMODE
 70
     1
  9
$TEXTSIZE
 40
0.2
  9
$TRACEWID
 40
0.05
  9
$TEXTSTYLE
  7
STANDARD
  9
$CLAYER
  8
0
  9
$CELTYPE
  6
BYLAYER
  9
$CECOLOR
 62
   256
  9
$CELTSCALE
 40
1.0
  9
$DISPSILH
 70
     0
  9
$DIMSCALE
 40
2.0
  9
$DIMASZ
 40
3.0
  9
$DIMEXO
 40
3.712499999999999
  9
$DIMDLI
 40
22.572
  9
$DIMRND
 40
0.0
  9
$DIMDLE
 40
0.0
  9
$DIMEXE
 40
10.692
  9
$DIMTP
 40
0.003
  9
$DIMTM
 40
0.003
  9
$DIMTXT
 40
1.5
  9
$DIMCEN
 40
5.346
  9
$DIMTSZ
 40
0.0
  9
$DIMTOL
 70
     1
  9
$DIMLIM
 70
     0
  9
$DIMTIH
 70
     1
  9
$DIMTOH
 70
     1
  9
$DIMSE1
 70
     0
  9
$DIMSE2
 70
     0
  9
$DIMTAD
 70
     0
  9
$DIMZIN
 70
     0
  9
$DIMBLK
  1

  9
$DIMASO
 70
     1
  9
$DIMSHO
 70
     1
  9
$DIMPOST
  1

  9
$DIMAPOST
  1

  9
$DIMALT
 70
     0
  9
$DIMALTD
 70
     2
  9
$DIMALTF
 40
25.4
  9
$DIMLFAC
 40
0.5
  9
$DIMTOFL
 70
     0
  9
$DIMTVP
 40
0.0
  9
$DIMTIX
 70
     0
  9
$DIMSOXD
 70
     0
  9
$DIMSAH
 70
     0
  9
$DIMBLK1
  1

  9
$DIMBLK2
  1

  9
$DIMSTYLE
  2
STANDARD
  9
$DIMCLRD
 70
     0
  9
$DIMCLRE
 70
     0
  9
$DIMCLRT
 70
     0
  9
$DIMTFAC
 40
1.0
  9
$DIMGAP
 40
0.09
  9
$DIMJUST
 70
     0
  9
$DIMSD1
 70
     0
  9
$DIMSD2
 70
     0
  9
$DIMTOLJ
 70
     1
  9
$DIMTZIN
 70
     0
  9
$DIMALTZ
 70
     0
  9
$DIMALTTZ
 70
     0
  9
$DIMUPT
 70
     0
  9
$DIMDEC
 70
     4
  9
$DIMTDEC
 70
     4
  9
$DIMALTU
 70
     2
  9
$DIMALTTD
 70
     2
  9
$DIMTXSTY
  7
STANDARD
  9
$DIMAUNIT
 70
     0
  9
$DIMADEC
 70
     0
  9
$DIMALTRND
 40
0.0
  9
$DIMAZIN
 70
     0
  9
$DIMDSEP
 70
    46
  9
$DIMATFIT
 70
     3
  9
$DIMFRAC
 70
     0
  9
$DIMLDRBLK
  1

  9
$DIMLUNIT
 70
     2
  9
$DIMLWD
 70
    -2
  9
$DIMLWE
 70
    -2
  9
$DIMTMOVE
 70
     0
  9
$LUNITS
 70
     2
  9
$LUPREC
 70
     4
  9
$SKETCHINC
 40
0.1
  9
$FILLETRAD
 40
0.0
  9
$AUNITS
 70
     0
  9
$AUPREC
 70
     0
  9
$MENU
  1
acad
  9
$ELEVATION
 40
0.0
  9
$PELEVATION
 40
0.0
  9
$THICKNESS
 40
0.0
  9
$LIMCHECK
 70
     0
  9
$CHAMFERA
 40
0.0
  9
$CHAMFERB
 40
0.0
  9
$CHAMFERC
 40
0.0
  9
$CHAMFERD
 40
0.0
  9
$SKPOLY
 70
     0
  9
$TDCREATE
 40
2444972.041666667
  9
$TDUCREATE
 40
2444972.0
  9
$TDUPDATE
 40
2453410.619001771
  9
$TDUUPDATE
 40
2453410.577335104
  9
$TDINDWG
 40
0.6878612963
  9
$TDUSRTIMER
 40
0.6878612963
  9
$USRTIMER
 70
     1
  9
$ANGBASE
 50
0.0
  9
$ANGDIR
 70
     0
  9
$PDMODE
 70
     0
  9
$PDSIZE
 40
0.0
  9
$PLINEWID
 40
0.0
  9
$SPLFRAME
 70
     0
  9
$SPLINETYPE
 70
     6
  9
$SPLINESEGS
 70
     8
  9
$HANDSEED
  5
2ADF1
  9
$SURFTAB1
 70
     6
  9
$SURFTAB2
 70
     6
  9
$SURFTYPE
 70
     6
  9
$SURFU
 70
     6
  9
$SURFV
 70
     6
  9
$UCSBASE
  2

  9
$UCSNAME
  2

  9
$UCSORG
 10
0.0
 20
0.0
 30
0.0
  9
$UCSXDIR
 10
1.0
 20
0.0
 30
0.0
  9
$UCSYDIR
 10
0.0
 20
1.0
 30
0.0
  9
$UCSORTHOREF
  2

  9
$UCSORTHOVIEW
 70
     0
  9
$UCSORGTOP
 10
0.0
 20
0.0
 30
0.0
  9
$UCSORGBOTTOM
 10
0.0
 20
0.0
 30
0.0
  9
$UCSORGLEFT
 10
0.0
 20
0.0
 30
0.0
  9
$UCSORGRIGHT
 10
0.0
 20
0.0
 30
0.0
  9
$UCSORGFRONT
 10
0.0
 20
0.0
 30
0.0
  9
$UCSORGBACK
 10
0.0
 20
0.0
 30
0.0
  9
$PUCSBASE
  2

  9
$PUCSNAME
  2

  9
$PUCSORG
 10
0.0
 20
0.0
 30
0.0
  9
$PUCSXDIR
 10
1.0
 20
0.0
 30
0.0
  9
$PUCSYDIR
 10
0.0
 20
1.0
 30
0.0
  9
$PUCSORTHOREF
  2

  9
$PUCSORTHOVIEW
 70
     0
  9
$PUCSORGTOP
 10
0.0
 20
0.0
 30
0.0
  9
$PUCSORGBOTTOM
 10
0.0
 20
0.0
 30
0.0
  9
$PUCSORGLEFT
 10
0.0
 20
0.0
 30
0.0
  9
$PUCSORGRIGHT
 10
0.0
 20
0.0
 30
0.0
  9
$PUCSORGFRONT
 10
0.0
 20
0.0
 30
0.0
  9
$PUCSORGBACK
 10
0.0
 20
0.0
 30
0.0
  9
$USERI1
 70
     0
  9
$USERI2
 70
     0
  9
$USERI3
 70
     0
  9
$USERI4
 70
     0
  9
$USERI5
 70
     0
  9
$USERR1
 40
0.0
  9
$USERR2
 40
0.0
  9
$USERR3
 40
0.0
  9
$USERR4
 40
0.0
  9
$USERR5
 40
0.0
  9
$WORLDVIEW
 70
     1
  9
$SHADEDGE
 70
     3
  9
$SHADEDIF
 70
    70
  9
$TILEMODE
 70
     1
  9
$MAXACTVP
 70
    16
  9
$PINSBASE
 10
0.0
 20
0.0
 30
0.0
  9
$PLIMCHECK
 70
     0
  9
$PEXTMIN
 10
1.000000000000000E+20
 20
1.000000000000000E+20
 30
1.000000000000000E+20
  9
$PEXTMAX
 10
-1.000000000000000E+20
 20
-1.000000000000000E+20
 30
-1.000000000000000E+20
  9
$PLIMMIN
 10
0.0
 20
0.0
  9
$PLIMMAX
 10
12.0
 20
9.0
  9
$UNITMODE
 70
     0
  9
$VISRETAIN
 70
     0
  9
$PLINEGEN
 70
     1
  9
$PSLTSCALE
 70
     0
  9
$TREEDEPTH
 70
  3020
  9
$CMLSTYLE
  2
STANDARD
  9
$CMLJUST
 70
     0
  9
$CMLSCALE
 40
1.0
  9
$PROXYGRAPHICS
 70
     1
  9
$MEASUREMENT
 70
     0
  9
$CELWEIGHT
370
    -1
  9
$ENDCAPS
280
     0
  9
$JOINSTYLE
280
     0
  9
$LWDISPLAY
290
     0
  9
$INSUNITS
 70
     0
  9
$HYPERLINKBASE
  1

  9
$STYLESHEET
  1

  9
$XEDIT
290
     1
  9
$CEPSNTYPE
380
     0
  9
$PSTYLEMODE
290
     1
  9
$FINGERPRINTGUID
  2
{CA13A069-F2C0-40A5-844C-DBDF6CEA9423}
  9
$VERSIONGUID
  2
{FA0ACB66-8892-422A-9D16-4371E9664DB6}
  9
$EXTNAMES
290
     1
  9
$PSVPSCALE
 40
0.0
  9
$OLESTARTUP
290
     0
  0
ENDSEC
  0
SECTION
  2
CLASSES
  0
CLASS
  1
IMAGE
  2
AcDbRasterImage
  3
ISM
 90
      127
280
     0
281
     1
  0
CLASS
  1
DICTIONARYVAR
  2
AcDbDictionaryVar
  3
ObjectDBX Classes
 90
        0
280
     0
281
     0
  0
CLASS
  1
RASTERVARIABLES
  2
AcDbRasterVariables
  3
ISM
 90
        0
280
     0
281
     0
  0
CLASS
  1
IMAGEDEF
  2
AcDbRasterImageDef
  3
ISM
 90
        0
280
     0
281
     0
  0
CLASS
  1
IMAGEDEF_REACTOR
  2
AcDbRasterImageDefReactor
  3
ISM
 90
        1
280
     0
281
     0
  0
CLASS
  1
IDBUFFER
  2
AcDbIdBuffer
  3
ObjectDBX Classes
 90
        0
280
     0
281
     0
  0
CLASS
  1
SPATIAL_FILTER
  2
AcDbSpatialFilter
  3
ObjectDBX Classes
 90
        0
280
     0
281
     0
  0
CLASS
  1
SORTENTSTABLE
  2
AcDbSortentsTable
  3
ObjectDBX Classes
 90
        0
280
     0
281
     0
  0
CLASS
  1
LAYER_INDEX
  2
AcDbLayerIndex
  3
ObjectDBX Classes
 90
        0
280
     0
281
     0
  0
CLASS
  1
SPATIAL_INDEX
  2
AcDbSpatialIndex
  3
AutoCAD 2000
 90
        0
280
     0
281
     0
  0
CLASS
  1
OBJECT_PTR
  2
CAseDLPNTableRecord
  3
ASE-LPNTableRecord
 90
        1
280
     0
281
     0
  0
CLASS
  1
PLOTSETTINGS
  2
AcDbPlotSettings
  3
ObjectDBX Classes
 90
        0
280
     0
281
     0
  0
CLASS
  1
ACDBDICTIONARYWDFLT
  2
AcDbDictionaryWithDefault
  3
ObjectDBX Classes
 90
        0
280
     0
281
     0
  0
CLASS
  1
WIPEOUT
  2
AcDbWipeout
  3
WipeOut|AutoCAD Express Tool|expresstools@autodesk.com
 90
      127
280
     0
281
     1
  0
CLASS
  1
WIPEOUTVARIABLES
  2
AcDbWipeoutVariables
  3
WipeOut|AutoCAD Express Tool|expresstools@autodesk.com
 90
        0
280
     0
281
     0
  0
CLASS
  1
RTEXT
  2
RText
  3
RText|AutoCAD Express Tool|expresstools@autodesk.com
 90
        0
280
     0
281
     1
  0
CLASS
  1
ARCALIGNEDTEXT
  2
AcDbArcAlignedText
  3
ATEXT|AutoCAD Express Tool|expresstools@autodesk.com
 90
        0
280
     0
281
     1
  0
CLASS
  1
ACDBPLACEHOLDER
  2
AcDbPlaceHolder
  3
ObjectDBX Classes
 90
        0
280
     0
281
     0
  0
CLASS
  1
LAYOUT
  2
AcDbLayout
  3
ObjectDBX Classes
 90
        0
280
     0
281
     0
  0
ENDSEC
  0
SECTION
  2
TABLES
  0
TABLE
  2
VPORT
  5
8
330
0
100
AcDbSymbolTable
 70
     1
  0
VPORT
  5
2ADE5
330
8
100
AcDbSymbolTableRecord
100
AcDbViewportTableRecord
  2
*Active
 70
     0
 10
0.0
 20
0.0
 11
1.0
 21
1.0
 12
3335.83254684002
 22
1819.679975956687
 13
0.0
 23
0.0
 14
1.0
 24
1.0
 15
0.0
 25
0.0
 16
0.0
 26
0.0
 36
1.0
 17
0.0
 27
0.0
 37
0.0
 40
747.6132821202154
 41
1.888667992047713
 42
50.0
 43
0.0
 44
0.0
 50
0.0
 51
0.0
 71
     0
 72
   100
 73
     1
 74
     1
 75
     0
 76
     0
 77
     0
 78
     0
281
     0
 65
     1
110
0.0
120
0.0
130
0.0
111
1.0
121
0.0
131
0.0
112
0.0
122
1.0
132
0.0
 79
     0
146
0.0
  0
ENDTAB
  0
TABLE
  2
LTYPE
  5
5
330
0
100
AcDbSymbolTable
 70
     2
  0
LTYPE
  5
14
330
5
100
AcDbSymbolTableRecord
100
AcDbLinetypeTableRecord
  2
BYBLOCK
 70
     0
  3

 72
    65
 73
     0
 40
0.0
  0
LTYPE
  5
15
330
5
100
AcDbSymbolTableRecord
100
AcDbLinetypeTableRecord
  2
BYLAYER
 70
     0
  3

 72
    65
 73
     0
 40
0.0
  0
LTYPE
  5
16
330
5
100
AcDbSymbolTableRecord
100
AcDbLinetypeTableRecord
  2
CONTINUOUS
 70
     0
  3
Solid line
 72
    65
 73
     0
 40
0.0
  0
LTYPE
  5
1F5
330
5
100
AcDbSymbolTableRecord
100
AcDbLinetypeTableRecord
  2
CENTER
 70
     0
  3
____ _ ____ _ ____ _ ____ _ ____ _ ____ _ ____
 72
    65
 73
     4
 40
0.6
 49
0.375
 74
     0
 49
-0.075
 74
     0
 49
0.075
 74
     0
 49
-0.075
 74
     0
  0
ENDTAB
  0
TABLE
  2
LAYER
  5
2
330
0
100
AcDbSymbolTable
 70
     3
  0
LAYER
  5
10
330
2
100
AcDbSymbolTableRecord
100
AcDbLayerTableRecord
  2
0
 70
     0
 62
     7
  6
CONTINUOUS
370
    -3
390
41B
  0
LAYER
  5
1FA
330
2
100
AcDbSymbolTableRecord
100
AcDbLayerTableRecord
  2
DEFAULT_1
 70
     0
 62
     7
  6
CENTER
370
    -3
390
41B
  0
LAYER
  5
424
330
2
100
AcDbSymbolTableRecord
100
AcDbLayerTableRecord
  2
Defpoints
 70
     0
 62
     7
  6
CONTINUOUS
290
     0
370
    -3
390
41B
  0
ENDTAB
  0
TABLE
  2
STYLE
  5
3
330
0
100
AcDbSymbolTable
 70
     1
  0
STYLE
  5
11
330
3
100
AcDbSymbolTableRecord
100
AcDbTextStyleTableRecord
  2
STANDARD
 70
     0
 40
10.0
 41
1.0
 50
0.0
 71
     0
 42
0.2
  3
VERDANA.TTF
  4

1001
ACAD
1000
Verdana
1071
       34
  0
ENDTAB
  0
TABLE
  2
VIEW
  5
6
330
0
100
AcDbSymbolTable
 70
     0
  0
ENDTAB
  0
TABLE
  2
UCS
  5
7
330
0
100
AcDbSymbolTable
 70
     0
  0
ENDTAB
  0
TABLE
  2
APPID
  5
9
330
0
100
AcDbSymbolTable
 70
     1
  0
APPID
  5
20E
330
9
100
AcDbSymbolTableRecord
100
AcDbRegAppTableRecord
  2
ACAD
 70
     0
  0
ENDTAB
  0
TABLE
  2
DIMSTYLE
  5
A
330
0
100
AcDbSymbolTable
 70
     1
100
AcDbDimStyleTable
  0
DIMSTYLE
105
20F
330
A
100
AcDbSymbolTableRecord
100
AcDbDimStyleTableRecord
  2
STANDARD
 70
     0
 41
3.0
 47
0.003
 48
0.003
 71
     1
 73
     0
 74
     0
 77
     1
 78
     8
140
1.5
271
     3
272
     3
284
     8
340
11
  0
ENDTAB
  0
TABLE
  2
BLOCK_RECORD
  5
1
330
0
100
AcDbSymbolTable
 70
     0
  0
BLOCK_RECORD
  5
1B
330
1
100
AcDbSymbolTableRecord
100
AcDbBlockTableRecord
  2
*MODEL_SPACE
340
420
  0
BLOCK_RECORD
  5
1C
330
1
100
AcDbSymbolTableRecord
100
AcDbBlockTableRecord
  2
*PAPER_SPACE
340
421
  0
ENDTAB
  0
ENDSEC
  0
SECTION
  2
BLOCKS
  0
BLOCK
  5
1E
330
1B
100
AcDbEntity
  8
0
100
AcDbBlockBegin
  2
*MODEL_SPACE
 70
     0
 71
     0
 10
0.0
 20
0.0
 30
0.0
  3
*MODEL_SPACE
  1

  0
ENDBLK
  5
1F
330
1B
100
AcDbEntity
  8
0
100
AcDbBlockEnd
  0
BLOCK
  5
20
330
1C
100
AcDbEntity
 67
     1
  8
0
100
AcDbBlockBegin
  2
*PAPER_SPACE
 70
     0
 71
     0
 10
0.0
 20
0.0
 30
0.0
  3
*PAPER_SPACE
  1

  0
ENDBLK
  5
21
330
1C
100
AcDbEntity
 67
     1
  8
0
100
AcDbBlockEnd
  0
ENDSEC
  0
SECTION
  2
ENTITIES
  0
SPLINE
  5
135F
330
1B
100
AcDbEntity
  8
0
  6
Continuous
 62
     0
100
AcDbSpline
210
0.0
220
0.0
230
1.0
 70
     8
 71
     3
 72
     9
 73
     5
 74
     3
 42
0.0000000001
 43
0.0000000001
 44
0.0000000001
 40
0.0
 40
0.0
 40
0.0
 40
0.0
 40
2.366969470202522
 40
4.780738461549481
 40
4.780738461549481
 40
4.780738461549481
 40
4.780738461549481
 10
3579.26092654287
 20
1712.070102096515
 30
0.0
 10
3578.475222075918
 20
1711.997164138621
 30
0.0
 10
3576.888278259423
 20
1711.849846099667
 30
0.0
 10
3575.308788548851
 20
1711.636961754267
 30
0.0
 10
3574.51131273707
 20
1711.529477599715
 30
0.0
 11
3579.26092654287
 21
1712.070102096515
 31
0.0
 11
3576.905640362271
 21
1711.835215995715
 31
0.0
 11
3574.51131273707
 21
1711.529477599715
 31
0.0
  0
SPLINE
  5
1360
330
1B
100
AcDbEntity
  8
0
  6
Continuous
 62
     0
100
AcDbSpline
210
0.0
220
0.0
230
1.0
 70
     8
 71
     3
 72
    12
 73
     8
 74
     6
 42
0.0000000001
 43
0.0000000001
 44
0.0000000001
 40
0.0
 40
0.0
 40
0.0
 40
0.0
 40
0.5254332514154307
 40
1.016274266178808
 40
1.449456097543123
 40
1.812105812999242
 40
2.109010280298926
 40
2.109010280298926
 40
2.109010280298926
 40
2.109010280298926
 10
3573.94721656907
 20
1709.597625947115
 30
0.0
 10
3573.935154260274
 20
1709.772530962917
 30
0.0
 10
3573.911823772553
 20
1710.110826010111
 30
0.0
 10
3573.962734966573
 20
1710.595034101053
 30
0.0
 10
3574.07901745104
 20
1711.007133562172
 30
0.0
 10
3574.248376077208
 20
1711.342216451273
 30
0.0
 10
3574.429668735259
 20
1711.471347881801
 30
0.0
 10
3574.511279316271
 20
1711.529477599715
 30
0.0
 11
3573.94721656907
 21
1709.597625947115
 31
0.0
 11
3573.92680793307
 21
1710.122662697514
 31
0.0
 11
3573.97916586467
 21
1710.610703217115
 31
0.0
 11
3574.10062624227
 21
1711.026508310515
 31
0.0
 11
3574.28247080907
 21
1711.340271548715
 31
0.0
 11
3574.511279316271
 21
1711.529477599715
 31
0.0
  0
SPLINE
  5
1361
330
1B
100
AcDbEntity
  8
0
  6
Continuous
 62
     0
100
AcDbSpline
210
0.0
220
0.0
230
1.0
 70
     8
 71
     3
 72
     9
 73
     5
 74
     3
 42
0.0000000001
 43
0.0000000001
 44
0.0000000001
 40
0.0
 40
0.0
 40
0.0
 40
0.0
 40
2.335453959692322
 40
4.718760773543025
 40
4.718760773543025
 40
4.718760773543025
 40
4.718760773543025
 10
3578.634451356471
 20
1710.138250444115
 30
0.0
 10
3577.859313333535
 20
1710.065157803602
 30
0.0
 10
3576.293154907877
 20
1709.91747487307
 30
0.0
 10
3574.734464896258
 20
1709.704960623418
 30
0.0
 10
3573.94721656907
 20
1709.597625947315
 30
0.0
 11
3578.634451356471
 21
1710.138250444115
 31
0.0
 11
3576.310866714671
 21
1709.903091752515
 31
0.0
 11
3573.94721656907
 21
1709.597625947315
 31
0.0
  0
SPLINE
  5
1362
330
1B
100
AcDbEntity
  8
0
  6
Continuous
 62
     0
100
AcDbSpline
210
0.0
220
0.0
230
1.0
 70
     8
 71
     3
 72
    11
 73
     7
 74
     5
 42
0.0000000001
 43
0.0000000001
 44
0.0000000001
 40
0.0
 40
0.0
 40
0.0
 40
0.0
 40
3.028831558509058
 40
6.020109015686401
 40
8.99312090362238
 40
11.98000777352258
 40
11.98000777352258
 40
11.98000777352258
 40
11.98000777352258
 10
3590.60008487427
 20
1710.138250444115
 30
0.0
 10
3589.593111387763
 20
1710.213530673758
 30
0.0
 10
3587.591649752285
 20
1710.363157742951
 30
0.0
 10
3584.593233496585
 20
1710.421062558986
 30
0.0
 10
3581.608875887335
 20
1710.361075092417
 30
0.0
 10
3579.62746381328
 20
1710.212640514917
 30
0.0
 10
3578.634451356471
 20
1710.138250444115
 30
0.0
 11
3590.60008487427
 21
1710.138250444115
 31
0.0
 11
3587.57771748607
 21
1710.336028047915
 31
0.0
 11
3584.587155897671
 21
1710.401466658915
 31
0.0
 11
3581.61490574707
 21
1710.334170833915
 31
0.0
 11
3578.634451356471
 21
1710.138250444115
 31
0.0
  0
SPLINE
  5
1363
330
1B
100
AcDbEntity
  8
0
  6
Continuous
 62
     0
100
AcDbSpline
210
0.0
220
0.0
230
1.0
 70
     8
 71
     3
 72
    12
 73
     8
 74
     6
 42
0.0000000001
 43
0.0000000001
 44
0.0000000001
 40
0.0
 40
0.0
 40
0.0
 40
0.0
 40
0.5331408555155065
 40
1.045367350103133
 40
1.510983508144608
 40
1.911320040644199
 40
2.240892901231439
 40
2.240892901231439
 40
2.240892901231439
 40
2.240892901231439
 10
3595.287319661871
 20
1709.597625947115
 30
0.0
 10
3595.312892911053
 20
1709.77368216492
 30
0.0
 10
3595.363036207057
 20
1710.11888816437
 30
0.0
 10
3595.518172718008
 20
1710.601432380218
 30
0.0
 10
3595.722991558715
 20
1711.012269509951
 30
0.0
 10
3595.960815911362
 20
1711.342168555571
 30
0.0
 10
3596.169387810835
 20
1711.471211425574
 30
0.0
 10
3596.26356338687
 20
1711.529477599715
 30
0.0
 11
3595.287319661871
 21
1709.597625947115
 31
0.0
 11
3595.37891400167
 21
1710.122839854715
 31
0.0
 11
3595.53528580367
 21
1710.610614230115
 31
0.0
 11
3595.74528944287
 21
1711.026182369115
 31
0.0
 11
3595.993956648471
 21
1711.339924237715
 31
0.0
 11
3596.26356338687
 21
1711.529477599715
 31
0.0
  0
SPLINE
  5
1364
330
1B
100
AcDbEntity
  8
0
  6
Continuous
 62
     0
100
AcDbSpline
210
0.0
220
0.0
230
1.0
 70
     8
 71
     3
 72
    10
 73
     6
 74
     4
 42
0.0000000001
 43
0.0000000001
 44
0.0000000001
 40
0.0
 40
0.0
 40
0.0
 40
0.0
 40
1.625242181046072
 40
3.231815119133289
 40
4.818034205148143
 40
4.818034205148143
 40
4.818034205148143
 40
4.818034205148143
 10
3596.263564108671
 20
1711.529477599715
 30
0.0
 10
3595.726645182321
 20
1711.601699285451
 30
0.0
 10
3594.658974945745
 20
1711.745313042596
 30
0.0
 10
3593.063065373171
 20
1711.926736094413
 30
0.0
 10
3592.00309640793
 20
1712.02251696152
 30
0.0
 10
3591.47649054367
 20
1712.070102096515
 30
0.0
 11
3596.263564108671
 21
1711.529477599715
 31
0.0
 11
3594.652092790471
 21
1711.740599217915
 31
0.0
 11
3593.055715962071
 21
1711.921313431915
 31
0.0
 11
3591.47649054367
 21
1712.070102096515
 31
0.0
  0
SPLINE
  5
1365
330
1B
100
AcDbEntity
  8
0
  6
Continuous
 62
     0
100
AcDbSpline
210
0.0
220
0.0
230
1.0
 70
     8
 71
     3
 72
    10
 73
     6
 74
     4
 42
0.0000000001
 43
0.0000000001
 44
0.0000000001
 40
0.0
 40
0.0
 40
0.0
 40
0.0
 40
1.592850671530185
 40
3.16597900273246
 40
4.71884429279128
 40
4.71884429279128
 40
4.71884429279128
 40
4.71884429279128
 10
3595.28731966167
 20
1709.597625948115
 30
0.0
 10
3594.761291996773
 20
1709.669809541247
 30
0.0
 10
3593.71574983034
 20
1709.813282965517
 30
0.0
 10
3592.153127247376
 20
1709.994773645561
 30
0.0
 10
3591.115523711153
 20
1710.090631966058
 30
0.0
 10
3590.60008487427
 20
1710.138250444115
 30
0.0
 11
3595.28731966167
 21
1709.597625948115
 31
0.0
 11
3593.708513605071
 21
1709.808682095715
 31
0.0
 11
3592.14579783887
 21
1709.989381239315
 31
0.0
 11
3590.60008487427
 21
1710.138250444115
 31
0.0
  0
SPLINE
  5
1366
330
1B
100
AcDbEntity
  8
0
  6
Continuous
 62
     0
100
AcDbSpline
210
0.0
220
0.0
230
1.0
 70
     8
 71
     3
 72
    10
 73
     6
 74
     4
 42
0.0000000001
 43
0.0000000001
 44
0.0000000001
 40
0.0
 40
0.0
 40
0.0
 40
0.0
 40
1.586391106468538
 40
3.192894963245434
 40
4.818034183915062
 40
4.818034183915062
 40
4.818034183915062
 40
4.818034183915062
 10
3603.558045687071
 20
1712.070102096515
 30
0.0
 10
3603.03138273715
 20
1712.022511504374
 30
0.0
 10
3601.971379643794
 20
1711.926726952048
 30
0.0
 10
3600.375470389417
 20
1711.745301272074
 30
0.0
 10
3599.307857032753
 20
1711.601694860686
 30
0.0
 10
3598.77097214267
 20
1711.529477599715
 30
0.0
 11
3603.558045687071
 21
1712.070102096515
 31
0.0
 11
3601.97864916047
 21
1711.921295663715
 31
0.0
 11
3600.38234125787
 21
1711.740586721115
 31
0.0
 11
3598.77097214267
 21
1711.529477599715
 31
0.0
  0
SPLINE
  5
1367
330
1B
100
AcDbEntity
  8
0
  6
Continuous
 62
     0
100
AcDbSpline
210
0.0
220
0.0
230
1.0
 70
     8
 71
     3
 72
    12
 73
     8
 74
     6
 42
0.0000000001
 43
0.0000000001
 44
0.0000000001
 40
0.0
 40
0.0
 40
0.0
 40
0.0
 40
0.5329677994985964
 40
1.045479969337338
 40
1.511385710628369
 40
1.911829843540376
 40
2.240895555259841
 40
2.240895555259841
 40
2.240895555259841
 40
2.240895555259841
 10
3599.74721656907
 20
1709.597625947115
 30
0.0
 10
3599.721653460547
 20
1709.773625065578
 30
0.0
 10
3599.671508371221
 20
1710.118868348845
 30
0.0
 10
3599.516334155656
 20
1710.601544548657
 30
0.0
 10
3599.311381035765
 20
1711.012571379161
 30
0.0
 10
3599.073489288615
 20
1711.342384496633
 30
0.0
 10
3598.865012224192
 20
1711.471318383064
 30
0.0
 10
3598.77097284407
 20
1711.529477599715
 30
0.0
 11
3599.74721656907
 21
1709.597625947115
 31
0.0
 11
3599.655663615071
 21
1710.122671404115
 31
0.0
 11
3599.499208060671
 21
1710.610718926115
 31
0.0
 11
3599.28903190687
 21
1711.026524342315
 31
0.0
 11
3599.04021082267
 21
1711.340281528115
 31
0.0
 11
3598.77097284407
 21
1711.529477599715
 31
0.0
  0
SPLINE
  5
1368
330
1B
100
AcDbEntity
  8
0
  6
Continuous
 62
     0
100
AcDbSpline
210
0.0
220
0.0
230
1.0
 70
     8
 71
     3
 72
    10
 73
     6
 74
     4
 42
0.0000000001
 43
0.0000000001
 44
0.0000000001
 40
0.0
 40
0.0
 40
0.0
 40
0.0
 40
1.552985540741974
 40
3.126128803787898
 40
4.71884429343731
 40
4.71884429343731
 40
4.71884429343731
 40
4.71884429343731
 10
3604.43445135647
 20
1710.138250444115
 30
0.0
 10
3603.91897262047
 20
1710.090628082457
 30
0.0
 10
3602.881324244441
 20
1709.994765221806
 30
0.0
 10
3601.318701955031
 20
1709.813271992989
 30
0.0
 10
3600.27319956072
 20
1709.669803616984
 30
0.0
 10
3599.74721656907
 20
1709.597625948115
 30
0.0
 11
3604.43445135647
 21
1710.138250444115
 31
0.0
 11
3602.88861880227
 21
1709.989368597915
 31
0.0
 11
3601.325888476071
 21
1709.808665378115
 31
0.0
 11
3599.74721656907
 21
1709.597625948115
 31
0.0
  0
SPLINE
  5
1369
330
1B
100
AcDbEntity
  8
0
  6
Continuous
 62
     0
100
AcDbSpline
210
0.0
220
0.0
230
1.0
 70
     8
 71
     3
 72
    11
 73
     7
 74
     5
 42
0.0000000001
 43
0.0000000001
 44
0.0000000001
 40
0.0
 40
0.0
 40
0.0
 40
0.0
 40
2.986931716275445
 40
5.959908008906032
 40
8.95118364618239
 40
11.98000777473911
 40
11.98000777473911
 40
11.98000777473911
 40
11.98000777473911
 10
3616.40008487427
 20
1710.138250444115
 30
0.0
 10
3615.407057491324
 20
1710.212641489149
 30
0.0
 10
3613.425642308501
 20
1710.361076012333
 30
0.0
 10
3610.441282219445
 20
1710.421062305159
 30
0.0
 10
3607.442880924585
 20
1710.363157402637
 30
0.0
 10
3605.441422369965
 20
1710.213530513945
 30
0.0
 10
3604.43445135647
 20
1710.138250444115
 30
0.0
 11
3616.40008487427
 21
1710.138250444115
 31
0.0
 11
3613.419585672871
 21
1710.334172847514
 31
0.0
 11
3610.447371081271
 21
1710.401466666115
 31
0.0
 11
3607.45681132067
 21
1710.336027714115
 31
0.0
 11
3604.43445135647
 21
1710.138250444115
 31
0.0
  0
SPLINE
  5
136A
330
1B
100
AcDbEntity
  8
0
  6
Continuous
 62
     0
100
AcDbSpline
210
0.0
220
0.0
230
1.0
 70
     8
 71
     3
 72
    12
 73
     8
 74
     6
 42
0.0000000001
 43
0.0000000001
 44
0.0000000001
 40
0.0
 40
0.0
 40
0.0
 40
0.0
 40
0.5255977960212904
 40
1.016165104152117
 40
1.449085147849719
 40
1.811646871696845
 40
2.109006269475596
 40
2.109006269475596
 40
2.109006269475596
 40
2.109006269475596
 10
3621.087319661671
 20
1709.597625947115
 30
0.0
 10
3621.099384185299
 20
1709.772586091968
 30
0.0
 10
3621.122709145947
 20
1710.110845489484
 30
0.0
 10
3621.07180576573
 20
1710.594926611267
 30
0.0
 10
3620.95561580042
 20
1711.006833674217
 30
0.0
 10
3620.786350004045
 20
1711.341992701744
 30
0.0
 10
3620.604981342391
 20
1711.471239293155
 30
0.0
 10
3620.52325691467
 20
1711.529477599715
 30
0.0
 11
3621.087319661671
 21
1709.597625947115
 31
0.0
 11
3621.10772319207
 21
1710.122827564715
 31
0.0
 11
3621.05539106387
 21
1710.610595575315
 31
0.0
 11
3620.93405331207
 21
1711.026163757715
 31
0.0
 11
3620.75235842547
 21
1711.339912019515
 31
0.0
 11
3620.52325691467
 21
1711.529477599715
 31
0.0
  0
SPLINE
  5
136B
330
1B
100
AcDbEntity
  8
0
  6
Continuous
 62
     0
100
AcDbSpline
210
0.0
220
0.0
230
1.0
 70
     8
 71
     3
 72
     9
 73
     5
 74
     3
 42
0.0000000001
 43
0.0000000001
 44
0.0000000001
 40
0.0
 40
0.0
 40
0.0
 40
0.0
 40
2.413875854793495
 40
4.780739356485832
 40
4.780739356485832
 40
4.780739356485832
 40
4.780739356485832
 10
3620.52322439487
 20
1711.529477599715
 30
0.0
 10
3619.725713236535
 20
1711.636966251938
 30
0.0
 10
3618.146223150366
 20
1711.849850120444
 30
0.0
 10
3616.559278998322
 20
1711.997167663296
 30
0.0
 10
3615.773609688071
 20
1712.070102096515
 30
0.0
 11
3620.52322439487
 21
1711.529477599715
 31
0.0
 11
3618.12879057267
 21
1711.835228010115
 31
0.0
 11
3615.773609688071
 21
1712.070102096515
 31
0.0
  0
SPLINE
  5
136C
330
1B
100
AcDbEntity
  8
0
  6
Continuous
 62
     0
100
AcDbSpline
210
0.0
220
0.0
230
1.0
 70
     8
 71
     3
 72
     9
 73
     5
 74
     3
 42
0.0000000001
 43
0.0000000001
 44
0.0000000001
 40
0.0
 40
0.0
 40
0.0
 40
0.0
 40
2.383410080244894
 40
4.718760774742552
 40
4.718760774742552
 40
4.718760774742552
 40
4.718760774742552
 10
3621.087319661671
 20
1709.597625947315
 30
0.0
 10
3620.300037189905
 20
1709.704965065315
 30
0.0
 10
3618.741347110843
 20
1709.917478901607
 30
0.0
 10
3617.175188643756
 20
1710.065161299243
 30
0.0
 10
3616.40008487427
 20
1710.138250444115
 30
0.0
 11
3621.087319661671
 21
1709.597625947315
 31
0.0
 11
3618.723566923871
 21
1709.903103614515
 31
0.0
 11
3616.40008487427
 21
1710.138250444115
 31
0.0
  0
SPLINE
  5
136F
330
1B
100
AcDbEntity
  8
0
  6
Continuous
 62
     0
100
AcDbSpline
210
0.0
220
0.0
230
1.0
 70
    24
 71
     3
 72
     8
 73
     4
 74
     2
 42
0.0000000001
 43
0.0000000001
 44
0.0000000001
 40
0.0
 40
0.0
 40
0.0
 40
0.0
 40
0.9033792697584028
 40
0.9033792697584028
 40
0.9033792697584028
 40
0.9033792697584028
 10
3598.420547462671
 20
1784.556666101915
 30
275.0
 10
3598.119454346938
 20
1784.561144766781
 30
275.0
 10
3597.818361231205
 20
1784.565623431648
 30
275.0
 10
3597.517268115471
 20
1784.570102096514
 30
275.0
 11
3598.420547462671
 21
1784.556666101915
 31
275.0
 11
3597.517268115471
 21
1784.570102096514
 31
275.0
  0
SPLINE
  5
1370
330
1B
100
AcDbEntity
  8
0
  6
Continuous
 62
     0
100
AcDbSpline
210
0.0
220
0.0
230
1.0
 70
    24
 71
     3
 72
     8
 73
     4
 74
     2
 42
0.0000000001
 43
0.0000000001
 44
0.0000000001
 40
0.0
 40
0.0
 40
0.0
 40
0.0
 40
0.025359947942062
 40
0.025359947942062
 40
0.025359947942062
 40
0.025359947942062
 10
3598.445895992671
 20
1784.555905190314
 30
275.0
 10
3598.437446482672
 20
1784.556158827515
 30
275.0
 10
3598.428996972672
 20
1784.556412464715
 30
275.0
 10
3598.420547462671
 20
1784.556666101915
 30
275.0
 11
3598.445895992671
 21
1784.555905190314
 31
275.0
 11
3598.420547462671
 21
1784.556666101915
 31
275.0
  0
SPLINE
  5
1371
330
1B
100
AcDbEntity
  8
0
  6
Continuous
 62
     0
100
AcDbSpline
210
0.0
220
0.0
230
1.0
 70
    24
 71
     3
 72
     8
 73
     4
 74
     2
 42
0.0000000001
 43
0.0000000001
 44
0.0000000001
 40
0.0
 40
0.0
 40
0.0
 40
0.0
 40
0.0920259847816808
 40
0.0920259847816808
 40
0.0920259847816808
 40
0.0920259847816808
 10
3598.35390848867
 20
1723.581637991315
 30
275.0
 10
3598.384570990004
 20
1723.582524995182
 30
275.0
 10
3598.415233491338
 20
1723.583411999049
 30
275.0
 10
3598.445895992671
 20
1723.584299002915
 30
275.0
 11
3598.35390848867
 21
1723.581637991315
 31
275.0
 11
3598.445895992671
 21
1723.584299002915
 31
275.0
  0
SPLINE
  5
1372
330
1B
100
AcDbEntity
  8
0
  6
Continuous
 62
     0
100
AcDbSpline
210
0.0
220
0.0
230
1.0
 70
    24
 71
     3
 72
     8
 73
     4
 74
     2
 42
0.0000000001
 43
0.0000000001
 44
0.0000000001
 40
0.0
 40
0.0
 40
0.0
 40
0.0
 40
0.8367198999282401
 40
0.8367198999282401
 40
0.8367198999282401
 40
0.8367198999282401
 10
3597.517268115471
 20
1723.570102096515
 30
275.0
 10
3597.796148239871
 20
1723.573947394782
 30
275.0
 10
3598.075028364271
 20
1723.577792693048
 30
275.0
 10
3598.35390848867
 20
1723.581637991315
 30
275.0
 11
3597.517268115471
 21
1723.570102096515
 31
275.0
 11
3598.35390848867
 21
1723.581637991315
 31
275.0
  0
SPLINE
  5
1373
330
1B
100
AcDbEntity
  8
0
  6
Continuous
 62
     0
100
AcDbSpline
210
0.0
220
0.0
230
1.0
 70
    24
 71
     3
 72
     8
 73
     4
 74
     2
 42
0.0000000001
 43
0.0000000001
 44
0.0000000001
 40
0.0
 40
0.0
 40
0.0
 40
0.0
 40
0.9033792701619803
 40
0.9033792701619803
 40
0.9033792701619803
 40
0.9033792701619803
 10
3596.61398876787
 20
1723.583538091315
 30
275.0
 10
3596.915081883737
 20
1723.579059426382
 30
275.0
 10
3597.216174999604
 20
1723.574580761448
 30
275.0
 10
3597.517268115471
 20
1723.570102096515
 30
275.0
 11
3596.61398876787
 21
1723.583538091315
 31
275.0
 11
3597.517268115471
 21
1723.570102096515
 31
275.0
  0
SPLINE
  5
1374
330
1B
100
AcDbEntity
  8
0
  6
Continuous
 62
     0
100
AcDbSpline
210
0.0
220
0.0
230
1.0
 70
    24
 71
     3
 72
     8
 73
     4
 74
     2
 42
0.0000000001
 43
0.0000000001
 44
0.0000000001
 40
0.0
 40
0.0
 40
0.0
 40
0.0
 40
0.836719900129674
 40
0.836719900129674
 40
0.836719900129674
 40
0.836719900129674
 10
3597.517268115471
 20
1784.570102096514
 30
275.0
 10
3597.238387991004
 20
1784.566256798247
 30
275.0
 10
3596.959507866537
 20
1784.562411499981
 30
275.0
 10
3596.68062774207
 20
1784.558566201714
 30
275.0
 11
3597.517268115471
 21
1784.570102096514
 31
275.0
 11
3596.68062774207
 21
1784.558566201714
 31
275.0
  0
SPLINE
  5
13E2
330
1B
100
AcDbEntity
  8
0
  6
Continuous
 62
     0
100
AcDbSpline
210
0.0
220
0.0
230
1.0
 70
     8
 71
     3
 72
    10
 73
     6
 74
     4
 42
0.0000000001
 43
0.0000000001
 44
0.0000000001
 40
0.0
 40
0.0
 40
0.0
 40
0.0
 40
0.9048196316623113
 40
1.824980312177329
 40
2.760540378415724
 40
2.760540378415724
 40
2.760540378415724
 40
2.760540378415724
 10
2923.00830696607
 20
1710.138250444015
 30
0.0
 10
2922.710470002281
 20
1710.0905851835
 30
0.0
 10
2922.109746304283
 20
1709.994446506829
 30
0.0
 10
2921.207368479608
 20
1709.812802781529
 30
0.0
 10
2920.605541346778
 20
1709.669747266543
 30
0.0
 10
2920.30213069987
 20
1709.597625948015
 30
0.0
 11
2923.00830696607
 21
1710.138250444015
 31
0.0
 11
2922.115820124871
 21
1709.989368597815
 31
0.0
 11
2921.21357735027
 21
1709.808665378014
 31
0.0
 11
2920.30213069987
 21
1709.597625948015
 31
0.0
  0
SPLINE
  5
13E3
330
1B
100
AcDbEntity
  8
0
  6
Continuous
 62
     0
100
AcDbSpline
210
0.0
220
0.0
230
1.0
 70
     8
 71
     3
 72
    11
 73
     7
 74
     5
 42
0.0000000001
 43
0.0000000001
 44
0.0000000001
 40
0.0
 40
0.0
 40
0.0
 40
0.0
 40
1.731909568037619
 40
3.449237429478817
 40
5.177077550651548
 40
6.933210356709648
 40
6.933210356709648
 40
6.933210356709648
 40
6.933210356709648
 10
2929.91666869867
 20
1710.138250444015
 30
0.0
 10
2929.34388863213
 20
1710.212619754487
 30
0.0
 10
2928.203150985759
 20
1710.360732227572
 30
0.0
 10
2926.476382740842
 20
1710.421195822922
 30
0.0
 10
2924.741406094369
 20
1710.362814440106
 30
0.0
 10
2923.589125825511
 20
1710.213509269059
 30
0.0
 10
2923.00830696607
 20
1710.138250444015
 30
0.0
 11
2929.91666869867
 21
1710.138250444015
 31
0.0
 11
2928.19587668227
 21
1710.334172847415
 31
0.0
 11
2926.47986778787
 21
1710.401466666015
 31
0.0
 11
2924.75326730487
 21
1710.336027714015
 31
0.0
 11
2923.00830696607
 21
1710.138250444015
 31
0.0
  0
SPLINE
  5
13E4
330
1B
100
AcDbEntity
  8
0
  6
Continuous
 62
     0
100
AcDbSpline
210
0.0
220
0.0
230
1.0
 70
     8
 71
     3
 72
    12
 73
     8
 74
     6
 42
0.0000000001
 43
0.0000000001
 44
0.0000000001
 40
0.0
 40
0.0
 40
0.0
 40
0.0
 40
0.5335618727406968
 40
1.06494301493454
 40
1.584925430679051
 40
2.087012599253569
 40
2.569316497498509
 40
2.569316497498509
 40
2.569316497498509
 40
2.569316497498509
 10
2932.62284496487
 20
1709.597625947015
 30
0.0
 10
2932.64581105843
 20
1709.774734072708
 30
0.0
 10
2932.691649380407
 20
1710.128226462213
 30
0.0
 10
2932.909181599184
 20
1710.618018955292
 30
0.0
 10
2933.220776692496
 20
1711.034771951682
 30
0.0
 10
2933.613143178666
 20
1711.362105719897
 30
0.0
 10
2933.923645040088
 20
1711.474439495601
 30
0.0
 10
2934.07577589867
 20
1711.529477599615
 30
0.0
 11
2932.62284496487
 21
1709.597625947015
 31
0.0
 11
2932.71692755047
 21
1710.122827564615
 31
0.0
 11
2932.927755172271
 21
1710.610595575215
 31
0.0
 11
2933.24030084647
 21
1711.026163757615
 31
0.0
 11
2933.632287521071
 21
1711.339912019415
 31
0.0
 11
2934.07577589867
 21
1711.529477599615
 31
0.0
  0
SPLINE
  5
13E5
330
1B
100
AcDbEntity
  8
0
  6
Continuous
 62
     0
100
AcDbSpline
210
0.0
220
0.0
230
1.0
 70
     8
 71
     3
 72
     9
 73
     5
 74
     3
 42
0.0000000001
 43
0.0000000001
 44
0.0000000001
 40
0.0
 40
0.0
 40
0.0
 40
0.0
 40
1.438860588321574
 40
2.838088916141228
 40
2.838088916141228
 40
2.838088916141228
 40
2.838088916141228
 10
2934.075725108471
 20
1711.529477599615
 30
0.0
 10
2933.608109888701
 20
1711.636821112217
 30
0.0
 10
2932.685759535222
 20
1711.84855144649
 30
0.0
 10
2931.751136298008
 20
1711.99694261187
 30
0.0
 10
2931.29035041427
 20
1712.070102096415
 30
0.0
 11
2934.075725108471
 21
1711.529477599615
 31
0.0
 11
2932.669724938071
 21
1711.835228010015
 31
0.0
 11
2931.29035041427
 21
1712.070102096415
 31
0.0
  0
SPLINE
  5
13E6
330
1B
100
AcDbEntity
  8
0
  6
Continuous
 62
     0
100
AcDbSpline
210
0.0
220
0.0
230
1.0
 70
     8
 71
     3
 72
     9
 73
     5
 74
     3
 42
0.0000000001
 43
0.0000000001
 44
0.0000000001
 40
0.0
 40
0.0
 40
0.0
 40
0.0
 40
1.398484515511454
 40
2.760401170974964
 40
2.760401170974964
 40
2.760401170974964
 40
2.760401170974964
 10
2932.62284496487
 20
1709.597625947215
 30
0.0
 10
2932.169018665656
 20
1709.704857263773
 30
0.0
 10
2931.273232810415
 20
1709.916515990421
 30
0.0
 10
2930.364845509817
 20
1710.064994606364
 30
0.0
 10
2929.91666869867
 20
1710.138250444015
 30
0.0
 11
2932.62284496487
 21
1709.597625947215
 31
0.0
 11
2931.258131685471
 21
1709.903103614414
 31
0.0
 11
2929.91666869867
 21
1710.138250444015
 31
0.0
  0
SPLINE
  5
13E7
330
1B
100
AcDbEntity
  8
0
  6
Continuous
 62
     0
100
AcDbSpline
210
0.0
220
0.0
230
1.0
 70
     8
 71
     3
 72
     9
 73
     5
 74
     3
 42
0.0000000001
 43
0.0000000001
 44
0.0000000001
 40
0.0
 40
0.0
 40
0.0
 40
0.0
 40
2.742055125415179
 40
5.53286337943142
 40
5.53286337943142
 40
5.53286337943142
 40
5.53286337943142
 10
2941.753284085871
 20
1712.070102096415
 30
0.0
 10
2940.842105564911
 20
1711.9970956031
 30
0.0
 10
2939.003547972095
 20
1711.849784577301
 30
0.0
 10
2937.171424739869
 20
1711.636871955917
 30
0.0
 10
2936.24729119667
 20
1711.529477599615
 30
0.0
 11
2941.753284085871
 21
1712.070102096415
 31
0.0
 11
2939.021328889671
 21
1711.834969970215
 31
0.0
 11
2936.24729119667
 21
1711.529477599615
 31
0.0
  0
SPLINE
  5
13E8
330
1B
100
AcDbEntity
  8
0
  6
Continuous
 62
     0
100
AcDbSpline
210
0.0
220
0.0
230
1.0
 70
     8
 71
     3
 72
     9
 73
     5
 74
     3
 42
0.0000000001
 43
0.0000000001
 44
0.0000000001
 40
0.0
 40
0.0
 40
0.0
 40
0.0
 40
2.695780945439068
 40
5.439678939338962
 40
5.439678939338962
 40
5.439678939338962
 40
5.439678939338962
 10
2941.897581517471
 20
1710.138250444015
 30
0.0
 10
2941.001889136735
 20
1710.065107448137
 30
0.0
 10
2939.194517143897
 20
1709.917515925573
 30
0.0
 10
2937.393634979729
 20
1709.704882893297
 30
0.0
 10
2936.48522898507
 20
1709.597625947215
 30
0.0
 11
2941.897581517471
 21
1710.138250444015
 31
0.0
 11
2939.21209825627
 21
1709.902847471215
 31
0.0
 11
2936.48522898507
 21
1709.597625947215
 31
0.0
  0
SPLINE
  5
13E9
330
1B
100
AcDbEntity
  8
0
  6
Continuous
 62
     0
100
AcDbSpline
210
0.0
220
0.0
230
1.0
 70
     8
 71
     3
 72
    11
 73
     7
 74
     5
 42
0.0000000001
 43
0.0000000001
 44
0.0000000001
 40
0.0
 40
0.0
 40
0.0
 40
0.0
 40
3.473506368718342
 40
6.914580222651107
 40
10.3556572505058
 40
13.82917511472359
 40
13.82917511472359
 40
13.82917511472359
 40
13.82917511472359
 10
2955.71430498267
 20
1710.138250444015
 30
0.0
 10
2954.558745794353
 20
1710.213129902781
 30
0.0
 10
2952.258417002214
 20
1710.362189662487
 30
0.0
 10
2948.805949530103
 20
1710.421023200699
 30
0.0
 10
2945.353478212358
 20
1710.362190118228
 30
0.0
 10
2943.05314453341
 20
1710.213130114378
 30
0.0
 10
2941.897581517471
 20
1710.138250444015
 30
0.0
 11
2955.71430498267
 21
1710.138250444015
 31
0.0
 11
2952.24638592687
 21
1710.335186768614
 31
0.0
 11
2948.80595058607
 21
1710.401473524415
 31
0.0
 11
2945.36551206227
 21
1710.335187209215
 31
0.0
 11
2941.897581517471
 21
1710.138250444015
 31
0.0
  0
SPLINE
  5
13EA
330
1B
100
AcDbEntity
  8
0
  6
Continuous
 62
     0
100
AcDbSpline
210
0.0
220
0.0
230
1.0
 70
     8
 71
     3
 72
     9
 73
     5
 74
     3
 42
0.0000000001
 43
0.0000000001
 44
0.0000000001
 40
0.0
 40
0.0
 40
0.0
 40
0.0
 40
2.790847009493874
 40
5.53286552755557
 40
5.53286552755557
 40
5.53286552755557
 40
5.53286552755557
 10
2961.36459746427
 20
1711.529477599615
 30
0.0
 10
2960.440451068307
 20
1711.636873286977
 30
0.0
 10
2958.608327086145
 20
1711.849785673215
 30
0.0
 10
2956.769768773615
 20
1711.997096636892
 30
0.0
 10
2955.85860241427
 20
1712.070102096415
 30
0.0
 11
2961.36459746427
 21
1711.529477599615
 31
0.0
 11
2958.59052117647
 21
1711.834973556815
 31
0.0
 11
2955.85860241427
 21
1712.070102096415
 31
0.0
  0
SPLINE
  5
13EB
330
1B
100
AcDbEntity
  8
0
  6
Continuous
 62
     0
100
AcDbSpline
210
0.0
220
0.0
230
1.0
 70
     8
 71
     3
 72
     9
 73
     5
 74
     3
 42
0.0000000001
 43
0.0000000001
 44
0.0000000001
 40
0.0
 40
0.0
 40
0.0
 40
0.0
 40
2.743933187971886
 40
5.439678939619634
 40
5.439678939619634
 40
5.439678939619634
 40
5.439678939619634
 10
2961.12665751507
 20
1709.597625947215
 30
0.0
 10
2960.218239860134
 20
1709.704884206237
 30
0.0
 10
2958.417357678457
 20
1709.917517114086
 30
0.0
 10
2956.609985675156
 20
1710.065108480444
 30
0.0
 10
2955.71430498267
 20
1710.138250444015
 30
0.0
 11
2961.12665751507
 21
1709.597625947215
 31
0.0
 11
2958.399753222471
 21
1709.902850977415
 31
0.0
 11
2955.71430498267
 21
1710.138250444015
 31
0.0
  0
SPLINE
  5
13EC
330
1B
100
AcDbEntity
  8
0
  6
Continuous
 62
     0
100
AcDbSpline
210
0.0
220
0.0
230
1.0
 70
     8
 71
     3
 72
     9
 73
     5
 74
     3
 42
0.0000000001
 43
0.0000000001
 44
0.0000000001
 40
0.0
 40
0.0
 40
0.0
 40
0.0
 40
1.399291230403227
 40
2.838087538588261
 40
2.838087538588261
 40
2.838087538588261
 40
2.838087538588261
 10
2966.321536085671
 20
1712.070102096415
 30
0.0
 10
2965.860729516427
 20
1711.996939082817
 30
0.0
 10
2964.926106792109
 20
1711.848547502376
 30
0.0
 10
2964.003757046989
 20
1711.636816637708
 30
0.0
 10
2963.53616279907
 20
1711.529477599615
 30
0.0
 11
2966.321536085671
 21
1712.070102096415
 31
0.0
 11
2964.942099799671
 21
1711.835215995615
 31
0.0
 11
2963.53616279907
 21
1711.529477599615
 31
0.0
  0
SPLINE
  5
13ED
330
1B
100
AcDbEntity
  8
0
  6
Continuous
 62
     0
100
AcDbSpline
210
0.0
220
0.0
230
1.0
 70
     8
 71
     3
 72
    12
 73
     8
 74
     6
 42
0.0000000001
 43
0.0000000001
 44
0.0000000001
 40
0.0
 40
0.0
 40
0.0
 40
0.0
 40
0.533390830264023
 40
1.065066568491357
 40
1.585400896368036
 40
2.087704153359405
 40
2.569317245969053
 40
2.569317245969053
 40
2.569317245969053
 40
2.569317245969053
 10
2964.98904153507
 20
1709.597625947015
 30
0.0
 10
2964.966086056793
 20
1709.774677122778
 30
0.0
 10
2964.920248912452
 20
1710.128210174937
 30
0.0
 10
2964.702653770131
 20
1710.618157082124
 30
0.0
 10
2964.390825928197
 20
1711.035105903964
 30
0.0
 10
2963.998386484502
 20
1711.362294837167
 30
0.0
 10
2963.688027111131
 20
1711.474536767357
 30
0.0
 10
2963.53611060147
 20
1711.529477599615
 30
0.0
 11
2964.98904153507
 21
1709.597625947015
 31
0.0
 11
2964.89500862307
 21
1710.122662697415
 31
0.0
 11
2964.684068959071
 21
1710.610703217015
 31
0.0
 11
2964.37125281967
 21
1711.026508310415
 31
0.0
 11
2963.979001379471
 21
1711.340271548615
 31
0.0
 11
2963.53611060147
 21
1711.529477599615
 31
0.0
  0
SPLINE
  5
13EE
330
1B
100
AcDbEntity
  8
0
  6
Continuous
 62
     0
100
AcDbSpline
210
0.0
220
0.0
230
1.0
 70
     8
 71
     3
 72
     9
 73
     5
 74
     3
 42
0.0000000001
 43
0.0000000001
 44
0.0000000001
 40
0.0
 40
0.0
 40
0.0
 40
0.0
 40
1.361977045386292
 40
2.760401168772483
 40
2.760401168772483
 40
2.760401168772483
 40
2.760401168772483
 10
2967.69521780127
 20
1710.138250444015
 30
0.0
 10
2967.247021152492
 20
1710.064991095492
 30
0.0
 10
2966.338633924293
 20
1709.916511947497
 30
0.0
 10
2965.442848180275
 20
1709.704852830788
 30
0.0
 10
2964.98904153507
 20
1709.597625947215
 30
0.0
 11
2967.69521780127
 21
1710.138250444015
 31
0.0
 11
2966.35369558307
 21
1709.903091752414
 31
0.0
 11
2964.98904153507
 21
1709.597625947215
 31
0.0
  0
SPLINE
  5
13EF
330
1B
100
AcDbEntity
  8
0
  6
Continuous
 62
     0
100
AcDbSpline
210
0.0
220
0.0
230
1.0
 70
     8
 71
     3
 72
    11
 73
     7
 74
     5
 42
0.0000000001
 43
0.0000000001
 44
0.0000000001
 40
0.0
 40
0.0
 40
0.0
 40
0.0
 40
1.756137102780883
 40
3.483978265281264
 40
5.201326719776939
 40
6.933210354502324
 40
6.933210354502324
 40
6.933210354502324
 40
6.933210354502324
 10
2974.60357953387
 20
1710.138250444015
 30
0.0
 10
2974.022759248515
 20
1710.213509428924
 30
0.0
 10
2972.870477204587
 20
1710.362814780584
 30
0.0
 10
2971.135491892661
 20
1710.421196078882
 30
0.0
 10
2969.408725086214
 20
1710.360731301663
 30
0.0
 10
2968.267989262649
 20
1710.212618780283
 30
0.0
 10
2967.69521780127
 20
1710.138250444015
 30
0.0
 11
2974.60357953387
 21
1710.138250444015
 31
0.0
 11
2972.85861490867
 21
1710.336028047815
 31
0.0
 11
2971.132013370671
 21
1710.401466658815
 31
0.0
 11
2969.41598394607
 21
1710.334170833815
 31
0.0
 11
2967.69521780127
 21
1710.138250444015
 31
0.0
  0
SPLINE
  5
13F2
330
1B
100
AcDbEntity
  8
0
  6
Continuous
 62
     0
100
AcDbSpline
210
0.0
220
0.0
230
1.0
 70
     8
 71
     3
 72
    10
 73
     6
 74
     4
 42
0.0000000001
 43
0.0000000001
 44
0.0000000001
 40
0.0
 40
0.0
 40
0.0
 40
0.0
 40
0.9356392924644608
 40
1.855790929781357
 40
2.760540377482087
 40
2.760540377482087
 40
2.760540377482087
 40
2.760540377482087
 10
2977.309755800071
 20
1709.597625948015
 30
0.0
 10
2977.006319409131
 20
1709.669753181815
 30
0.0
 10
2976.404469415648
 20
1709.812813725929
 30
0.0
 10
2975.502091094769
 20
1709.994454965951
 30
0.0
 10
2974.901393422033
 20
1710.090589075719
 30
0.0
 10
2974.60357953387
 20
1710.138250444015
 30
0.0
 11
2977.309755800071
 21
1709.597625948015
 31
0.0
 11
2976.39823169827
 21
1709.808682095615
 31
0.0
 11
2975.495997330071
 21
1709.989381239214
 31
0.0
 11
2974.60357953387
 21
1710.138250444015
 31
0.0
  0
CIRCLE
  5
13FA
330
1B
100
AcDbEntity
  8
0
  6
Continuous
 62
     0
100
AcDbCircle
 10
3597.517268115471
 20
1754.070102096514
 30
0.0
 40
30.3
  0
ARC
  5
13FB
330
1B
100
AcDbEntity
  8
0
  6
Continuous
 62
     0
100
AcDbCircle
 10
3620.517268115471
 20
1714.070102096515
 30
0.0
 40
2.0
100
AcDbArc
 50
270.0000000000004
 51
0.0
  0
ARC
  5
13FC
330
1B
100
AcDbEntity
  8
0
  6
Continuous
 62
     0
100
AcDbCircle
 10
3626.51726811547
 20
1723.689187034715
 30
0.0
 40
4.0
100
AcDbArc
 50
133.6678152983002
 51
180.0
  0
ARC
  5
13FE
330
1B
100
AcDbEntity
  8
0
  6
Continuous
 62
     0
100
AcDbCircle
 10
3626.51726811547
 20
1784.451017158515
 30
0.0
 40
4.0
100
AcDbArc
 50
180.0
 51
226.3321847017004
  0
ARC
  5
13FF
330
1B
100
AcDbEntity
  8
0
  6
Continuous
 62
     0
100
AcDbCircle
 10
3620.517268115471
 20
1794.070102096515
 30
0.0
 40
2.0
100
AcDbArc
 50
0.0
 51
90.0
  0
ARC
  5
1400
330
1B
100
AcDbEntity
  8
0
  6
Continuous
 62
     0
100
AcDbCircle
 10
3574.517268115471
 20
1794.070102096515
 30
0.0
 40
2.0
100
AcDbArc
 50
90.0
 51
180.0
  0
ARC
  5
1401
330
1B
100
AcDbEntity
  8
0
  6
Continuous
 62
     0
100
AcDbCircle
 10
3568.517268115471
 20
1784.451017158515
 30
0.0
 40
4.0
100
AcDbArc
 50
313.6678152982999
 51
0.0
  0
ARC
  5
1403
330
1B
100
AcDbEntity
  8
0
  6
Continuous
 62
     0
100
AcDbCircle
 10
3568.517268115471
 20
1723.689187034715
 30
0.0
 40
4.0
100
AcDbArc
 50
0.0
 51
46.3321847017004
  0
ARC
  5
1404
330
1B
100
AcDbEntity
  8
0
  6
Continuous
 62
     0
100
AcDbCircle
 10
3574.517268115471
 20
1714.070102096515
 30
0.0
 40
2.0
100
AcDbArc
 50
180.0
 51
270.0000000000004
  0
ARC
  5
1405
330
1B
100
AcDbEntity
  8
0
  6
Continuous
 62
     0
100
AcDbCircle
 10
3573.882953540471
 20
1679.470102096515
 30
0.0
 40
0.4
100
AcDbArc
 50
225.000004048499
 51
270.0000000000004
  0
ARC
  5
1406
330
1B
100
AcDbEntity
  8
0
  6
Continuous
 62
     0
100
AcDbCircle
 10
3621.15158269047
 20
1679.470102096515
 30
0.0
 40
0.4
100
AcDbArc
 50
270.0000000000004
 51
314.9999959515013
  0
ARC
  5
1407
330
1B
100
AcDbEntity
  8
0
  6
Continuous
 62
     0
100
AcDbCircle
 10
3571.91726811547
 20
1681.435787521515
 30
0.0
 40
0.4
100
AcDbArc
 50
180.0
 51
225.0000000143996
  0
ARC
  5
1408
330
1B
100
AcDbEntity
  8
0
  6
Continuous
 62
     0
100
AcDbCircle
 10
3623.11726811547
 20
1681.435787521515
 30
0.0
 40
0.4
100
AcDbArc
 50
314.9999999856012
 51
0.0
  0
ARC
  5
1409
330
1B
100
AcDbEntity
  8
0
  6
Continuous
 62
     0
100
AcDbCircle
 10
3573.71726811547
 20
1710.401473524515
 30
0.0
 40
2.0
100
AcDbArc
 50
123.455495652101
 51
180.0
  0
ARC
  5
140A
330
1B
100
AcDbEntity
  8
0
  6
Continuous
 62
     0
100
AcDbCircle
 10
3621.317268115471
 20
1710.401473524515
 30
0.0
 40
2.0
100
AcDbArc
 50
0.0
 51
56.54450434789934
  0
ARC
  5
140B
330
1B
100
AcDbEntity
  8
0
  6
Continuous
 62
     0
100
AcDbCircle
 10
3573.017268115471
 20
1699.070102096515
 30
0.0
 40
1.0
100
AcDbArc
 50
0.0
 51
84.00000957739992
  0
ARC
  5
140C
330
1B
100
AcDbEntity
  8
0
  6
Continuous
 62
     0
100
AcDbCircle
 10
3622.017268115471
 20
1699.070102096515
 30
0.0
 40
1.0
100
AcDbArc
 50
95.99999042260009
 51
180.0
  0
ARC
  5
140D
330
1B
100
AcDbEntity
  8
0
  6
Continuous
 62
     0
100
AcDbCircle
 10
3573.017268115471
 20
1693.084315658914
 30
0.0
 40
1.0
100
AcDbArc
 50
315.0000001020016
 51
0.0
  0
ARC
  5
140E
330
1B
100
AcDbEntity
  8
0
  6
Continuous
 62
     0
100
AcDbCircle
 10
3622.017268115471
 20
1693.084315658914
 30
0.0
 40
1.0
100
AcDbArc
 50
180.0
 51
224.9999998979987
  0
ARC
  5
1446
330
1B
100
AcDbEntity
  8
0
  6
Continuous
 62
     0
100
AcDbCircle
 10
2924.30594325007
 20
1693.084315658815
 30
0.0
 40
1.0
100
AcDbArc
 50
314.9999999994006
 51
0.0
  0
ARC
  5
1447
330
1B
100
AcDbEntity
  8
0
  6
Continuous
 62
     0
100
AcDbCircle
 10
2973.305943250071
 20
1693.084315658815
 30
0.0
 40
1.0
100
AcDbArc
 50
180.0
 51
225.0000000004992
  0
ARC
  5
1448
330
1B
100
AcDbEntity
  8
0
  6
Continuous
 62
     0
100
AcDbCircle
 10
2924.30594325007
 20
1699.070102096415
 30
0.0
 40
1.0
100
AcDbArc
 50
0.0
 51
90.0
  0
ARC
  5
1449
330
1B
100
AcDbEntity
  8
0
  6
Continuous
 62
     0
100
AcDbCircle
 10
2973.305943250071
 20
1699.070102096415
 30
0.0
 40
1.0
100
AcDbArc
 50
90.0
 51
180.0
  0
ARC
  5
144A
330
1B
100
AcDbEntity
  8
0
  6
Continuous
 62
     0
100
AcDbCircle
 10
2922.00594325007
 20
1709.597625947015
 30
0.0
 40
2.0
100
AcDbArc
 50
105.0
 51
180.0
  0
ARC
  5
144B
330
1B
100
AcDbEntity
  8
0
  6
Continuous
 62
     0
100
AcDbCircle
 10
2975.60594325007
 20
1709.597625947015
 30
0.0
 40
2.0
100
AcDbArc
 50
0.0
 51
75.00000000000044
  0
ARC
  5
144C
330
1B
100
AcDbEntity
  8
0
  6
Continuous
 62
     0
100
AcDbCircle
 10
2923.20594325007
 20
1681.435787521415
 30
0.0
 40
0.4
100
AcDbArc
 50
180.0
 51
225.0000000002018
  0
ARC
  5
144D
330
1B
100
AcDbEntity
  8
0
  6
Continuous
 62
     0
100
AcDbCircle
 10
2974.405943250071
 20
1681.435787521415
 30
0.0
 40
0.4
100
AcDbArc
 50
314.9999999997991
 51
0.0
  0
ARC
  5
144E
330
1B
100
AcDbEntity
  8
0
  6
Continuous
 62
     0
100
AcDbCircle
 10
2925.171628674871
 20
1679.470102096415
 30
0.0
 40
0.4
100
AcDbArc
 50
225.0000000064017
 51
270.0000000000004
  0
ARC
  5
144F
330
1B
100
AcDbEntity
  8
0
  6
Continuous
 62
     0
100
AcDbCircle
 10
2972.44025782507
 20
1679.470102096415
 30
0.0
 40
0.4
100
AcDbArc
 50
270.0000000000004
 51
314.9999999916998
  0
LINE
  5
1450
330
1B
100
AcDbEntity
  8
0
  6
Continuous
 62
     0
100
AcDbLine
 10
3620.517268115471
 20
1796.070102096515
 30
0.0
 11
3574.517268115471
 21
1796.070102096515
 31
0.0
  0
LINE
  5
1451
330
1B
100
AcDbEntity
  8
0
  6
Continuous
 62
     0
100
AcDbLine
 10
3621.43442538287
 20
1679.187259364115
 30
0.0
 11
3623.400110827871
 21
1681.152944808915
 31
0.0
  0
LINE
  5
1452
330
1B
100
AcDbEntity
  8
0
  6
Continuous
 62
     0
100
AcDbLine
 10
3623.517268115471
 20
1681.435787521515
 30
0.0
 11
3623.517268115471
 21
1690.170102096515
 31
0.0
  0
LINE
  5
1453
330
1B
100
AcDbEntity
  8
0
  6
Continuous
 62
     0
100
AcDbLine
 10
3623.317268115471
 20
1710.401473524515
 30
0.0
 11
3623.317268115471
 21
1700.070102096515
 31
0.0
  0
LINE
  5
1455
330
1B
100
AcDbEntity
  8
0
  6
Continuous
 62
     0
100
AcDbLine
 10
3622.51726811547
 20
1784.451017158515
 30
0.0
 11
3622.51726811547
 21
1794.070102096515
 31
0.0
  0
LINE
  5
1456
330
1B
100
AcDbEntity
  8
0
  6
Continuous
 62
     0
100
AcDbLine
 10
3622.51726811547
 20
1714.070102096515
 30
0.0
 11
3622.51726811547
 21
1723.689187034715
 31
0.0
  0
LINE
  5
1457
330
1B
100
AcDbEntity
  8
0
  6
Continuous
 62
     0
100
AcDbLine
 10
3621.817268115471
 20
1679.570102096515
 30
0.0
 11
3621.817268115471
 21
1691.870102096515
 31
0.0
  0
LINE
  5
145A
330
1B
100
AcDbEntity
  8
0
  6
Continuous
 62
     0
100
AcDbLine
 10
3621.087319661671
 20
1700.070102096515
 30
0.0
 11
3621.087319661671
 21
1709.597625947315
 31
0.0
  0
LINE
  5
145B
330
1B
100
AcDbEntity
  8
0
  6
Continuous
 62
     0
100
AcDbLine
 10
3621.01726811547
 20
1693.084315658914
 30
0.0
 11
3621.01726811547
 21
1699.070102096515
 31
0.0
  0
LINE
  5
145E
330
1B
100
AcDbEntity
  8
DEFAULT_1
  6
CENTER
 62
     0
100
AcDbLine
 10
3646.871712456349
 20
1754.070102096465
 30
0.0
 11
3548.162823774592
 21
1754.070102096565
 31
0.0
  0
LINE
  5
1460
330
1B
100
AcDbEntity
  8
0
  6
Continuous
 62
     0
100
AcDbLine
 10
3571.517268115471
 20
1690.170102096515
 30
0.0
 11
3573.724374897871
 21
1692.377208879114
 31
0.0
  0
LINE
  5
1461
330
1B
100
AcDbEntity
  8
0
  6
Continuous
 62
     0
100
AcDbLine
 10
3599.74721656907
 20
1709.597625948115
 30
0.0
 11
3599.74721656907
 21
1700.070102096515
 31
0.0
  0
LINE
  5
1463
330
1B
100
AcDbEntity
  8
0
  6
Continuous
 62
     0
100
AcDbLine
 10
3598.83900376727
 20
1709.597625947115
 30
0.0
 11
3598.83760931347
 21
1709.944922302515
 31
0.0
  0
LINE
  5
1464
330
1B
100
AcDbEntity
  8
0
  6
Continuous
 62
     0
100
AcDbLine
 10
3598.83760931347
 20
1709.944922302515
 30
0.0
 11
3598.833468321871
 21
1710.281666233715
 31
0.0
  0
LINE
  5
1468
330
1B
100
AcDbEntity
  8
DEFAULT_1
  6
CENTER
 62
     0
100
AcDbLine
 10
3597.517268115471
 20
1764.570102096515
 30
0.0
 11
3597.517268115471
 21
1806.070102096415
 31
0.0
  0
LINE
  5
1469
330
1B
100
AcDbEntity
  8
DEFAULT_1
  6
CENTER
 62
     0
100
AcDbLine
 10
3597.517268115471
 20
1743.570102096515
 30
0.0
 11
3597.517268115471
 21
1669.070102096515
 31
0.0
  0
LINE
  5
146A
330
1B
100
AcDbEntity
  8
0
  6
Continuous
 62
     0
100
AcDbLine
 10
3597.517268115471
 20
1756.170102096515
 30
0.0
 11
3597.517268115471
 21
1751.970102096515
 31
0.0
  0
LINE
  5
146B
330
1B
100
AcDbEntity
  8
0
  6
Continuous
 62
     0
100
AcDbLine
 10
3595.28731966167
 20
1700.070102096515
 30
0.0
 11
3595.28731966167
 21
1709.597625948115
 31
0.0
  0
LINE
  5
146C
330
1B
100
AcDbEntity
  8
0
  6
Continuous
 62
     0
100
AcDbLine
 10
3614.63558382947
 20
1729.070102096515
 30
0.0
 11
3580.39895240147
 21
1729.070102096515
 31
0.0
  0
LINE
  5
146F
330
1B
100
AcDbEntity
  8
0
  6
Continuous
 62
     0
100
AcDbLine
 10
3610.26784656387
 20
1726.587259601115
 30
0.0
 11
3584.766688527071
 21
1726.587260129315
 31
0.0
  0
LINE
  5
1471
330
1B
100
AcDbEntity
  8
0
  6
Continuous
 62
     0
100
AcDbLine
 10
3623.517268115471
 20
1690.170102096515
 30
0.0
 11
3621.31016133307
 21
1692.377208879114
 31
0.0
  0
LINE
  5
1472
330
1B
100
AcDbEntity
  8
0
  6
Continuous
 62
     0
100
AcDbLine
 10
3572.61468981087
 20
1712.070102096515
 30
0.0
 11
3622.41984641987
 21
1712.070102096515
 31
0.0
  0
LINE
  5
1474
330
1B
100
AcDbEntity
  8
0
  6
Continuous
 62
     0
100
AcDbLine
 10
3598.77097214267
 20
1711.529477599715
 30
0.0
 11
3596.263564108671
 21
1711.529477599715
 31
0.0
  0
LINE
  5
1478
330
1B
100
AcDbEntity
  8
0
  6
Continuous
 62
     0
100
AcDbLine
 10
3574.017268115471
 20
1693.084315658914
 30
0.0
 11
3574.017268115471
 21
1699.070102096515
 31
0.0
  0
LINE
  5
1479
330
1B
100
AcDbEntity
  8
0
  6
Continuous
 62
     0
100
AcDbLine
 10
3573.94721656907
 20
1709.597625947315
 30
0.0
 11
3573.94721656907
 21
1700.070102096515
 31
0.0
  0
LINE
  5
147B
330
1B
100
AcDbEntity
  8
0
  6
Continuous
 62
     0
100
AcDbLine
 10
3573.21726811547
 20
1679.570102096515
 30
0.0
 11
3573.21726811547
 21
1691.870102096515
 31
0.0
  0
LINE
  5
147C
330
1B
100
AcDbEntity
  8
0
  6
Continuous
 62
     0
100
AcDbLine
 10
3572.517268115471
 20
1723.689187034715
 30
0.0
 11
3572.517268115471
 21
1714.070102096515
 31
0.0
  0
LINE
  5
147D
330
1B
100
AcDbEntity
  8
0
  6
Continuous
 62
     0
100
AcDbLine
 10
3572.517268115471
 20
1794.070102096515
 30
0.0
 11
3572.517268115471
 21
1784.451017158515
 31
0.0
  0
LINE
  5
147F
330
1B
100
AcDbEntity
  8
0
  6
Continuous
 62
     0
100
AcDbLine
 10
3571.71726811547
 20
1700.070102096515
 30
0.0
 11
3571.71726811547
 21
1710.401473524515
 31
0.0
  0
LINE
  5
1480
330
1B
100
AcDbEntity
  8
0
  6
Continuous
 62
     0
100
AcDbLine
 10
3571.517268115471
 20
1681.435787521515
 30
0.0
 11
3571.517268115471
 21
1690.170102096515
 31
0.0
  0
LINE
  5
1481
330
1B
100
AcDbEntity
  8
0
  6
Continuous
 62
     0
100
AcDbLine
 10
3573.94721656907
 20
1709.597625947115
 30
0.0
 11
3571.71726811547
 21
1709.597625947115
 31
0.0
  0
LINE
  5
1482
330
1B
100
AcDbEntity
  8
0
  6
Continuous
 62
     0
100
AcDbLine
 10
3599.74721656907
 20
1709.597625947115
 30
0.0
 11
3595.28731966167
 21
1709.597625947115
 31
0.0
  0
LINE
  5
1483
330
1B
100
AcDbEntity
  8
0
  6
Continuous
 62
     0
100
AcDbLine
 10
3623.317268115471
 20
1709.597625947115
 30
0.0
 11
3621.087319661671
 21
1709.597625947115
 31
0.0
  0
LINE
  5
1484
330
1B
100
AcDbEntity
  8
0
  6
Continuous
 62
     0
100
AcDbLine
 10
3571.71726811547
 20
1700.070102096515
 30
0.0
 11
3623.317268115471
 21
1700.070102096515
 31
0.0
  0
LINE
  5
1485
330
1B
100
AcDbEntity
  8
0
  6
Continuous
 62
     0
100
AcDbLine
 10
3574.017268115471
 20
1699.070102096515
 30
0.0
 11
3621.01726811547
 21
1699.070102096515
 31
0.0
  0
LINE
  5
1486
330
1B
100
AcDbEntity
  8
0
  6
Continuous
 62
     0
100
AcDbLine
 10
3574.017268115471
 20
1693.084315658914
 30
0.0
 11
3621.01726811547
 21
1693.084315658914
 31
0.0
  0
LINE
  5
1488
330
1B
100
AcDbEntity
  8
0
  6
Continuous
 62
     0
100
AcDbLine
 10
3573.21726811547
 20
1691.870102287315
 30
0.0
 11
3621.817268115471
 21
1691.870102287315
 31
0.0
  0
LINE
  5
1489
330
1B
100
AcDbEntity
  8
0
  6
Continuous
 62
     0
100
AcDbLine
 10
3571.517268115471
 20
1690.170102096515
 30
0.0
 11
3623.517268115471
 21
1690.170102096515
 31
0.0
  0
LINE
  5
148A
330
1B
100
AcDbEntity
  8
0
  6
Continuous
 62
     0
100
AcDbLine
 10
3573.60011084787
 20
1679.187259364115
 30
0.0
 11
3571.63442540307
 21
1681.152944808915
 31
0.0
  0
LINE
  5
148B
330
1B
100
AcDbEntity
  8
0
  6
Continuous
 62
     0
100
AcDbLine
 10
3623.517268115471
 20
1681.435787521515
 30
0.0
 11
3571.517268115471
 21
1681.435787521515
 31
0.0
  0
LINE
  5
148D
330
1B
100
AcDbEntity
  8
0
  6
Continuous
 62
     0
100
AcDbLine
 10
3573.21726811547
 20
1679.570102096515
 30
0.0
 11
3621.817268115471
 21
1679.570102096515
 31
0.0
  0
LINE
  5
148F
330
1B
100
AcDbEntity
  8
0
  6
Continuous
 62
     0
100
AcDbLine
 10
3621.151284593671
 20
1679.070102096515
 30
0.0
 11
3573.883251637071
 21
1679.070102096515
 31
0.0
  0
LINE
  5
14A1
330
1B
100
AcDbEntity
  8
DEFAULT_1
  6
CENTER
 62
     0
100
AcDbLine
 10
3448.805943250071
 20
1669.070102096415
 30
0.0
 11
3448.80594325007
 21
1806.070102096415
 31
0.0
  0
LINE
  5
14C2
330
1B
100
AcDbEntity
  8
DEFAULT_1
  6
CENTER
 62
     0
100
AcDbLine
 10
3348.80594325007
 20
1669.070102096415
 30
0.0
 11
3348.80594325007
 21
1806.070102096415
 31
0.0
  0
LINE
  5
14E4
330
1B
100
AcDbEntity
  8
0
  6
Continuous
 62
     0
100
AcDbLine
 10
2903.44324994587
 20
1796.070102096415
 30
0.0
 11
3494.91919190407
 21
1796.070102096415
 31
0.0
  0
LINE
  5
14E5
330
1B
100
AcDbEntity
  8
0
  6
Continuous
 62
     0
100
AcDbLine
 10
3492.22302061407
 20
1794.070102096415
 30
0.0
 11
2906.13942123587
 21
1794.070102096415
 31
0.0
  0
LINE
  5
14E6
330
1B
100
AcDbEntity
  8
0
  6
Continuous
 62
     0
100
AcDbLine
 10
3496.74094496147
 20
1784.451017158415
 30
0.0
 11
2901.62149688847
 21
1784.451017158415
 31
0.0
  0
LINE
  5
14E7
330
1B
100
AcDbEntity
  8
0
  6
Continuous
 62
     0
100
AcDbLine
 10
3497.51726811547
 20
1781.557596676415
 30
0.0
 11
2900.845173734471
 21
1781.557596676415
 31
0.0
  0
LINE
  5
14E8
330
1B
100
AcDbEntity
  8
0
  6
Continuous
 62
     0
100
AcDbLine
 10
2921.488305159871
 20
1711.529477599615
 30
0.0
 11
2923.50594325007
 21
1712.070102096415
 31
0.0
  0
LINE
  5
14EC
330
1B
100
AcDbEntity
  8
DEFAULT_1
  6
CENTER
 62
     0
100
AcDbLine
 10
3248.805943250071
 20
1669.070102096415
 30
0.0
 11
3248.80594325007
 21
1806.070102096415
 31
0.0
  0
LINE
  5
14FA
330
1B
100
AcDbEntity
  8
DEFAULT_1
  6
CENTER
 62
     0
100
AcDbLine
 10
2890.845173734471
 20
1754.070102096414
 30
0.0
 11
3514.314764524816
 21
1754.070102096514
 31
0.0
  0
LINE
  5
1502
330
1B
100
AcDbEntity
  8
0
  6
Continuous
 62
     0
100
AcDbLine
 10
2900.845173734471
 20
1726.582607516614
 30
0.0
 11
3497.51726811547
 21
1726.582607516614
 31
0.0
  0
LINE
  5
1503
330
1B
100
AcDbEntity
  8
0
  6
Continuous
 62
     0
100
AcDbLine
 10
2901.62149688847
 20
1723.689187034615
 30
0.0
 11
3496.74094496147
 21
1723.689187034615
 31
0.0
  0
LINE
  5
1507
330
1B
100
AcDbEntity
  8
0
  6
Continuous
 62
     0
100
AcDbLine
 10
3492.22302061407
 20
1714.070102096415
 30
0.0
 11
2906.13942123587
 21
1714.070102096415
 31
0.0
  0
LINE
  5
1508
330
1B
100
AcDbEntity
  8
0
  6
Continuous
 62
     0
100
AcDbLine
 10
2903.44324994587
 20
1712.070102096415
 30
0.0
 11
3494.91919190407
 21
1712.070102096415
 31
0.0
  0
LINE
  5
1509
330
1B
100
AcDbEntity
  8
0
  6
Continuous
 62
     0
100
AcDbLine
 10
2921.51708880287
 20
1711.529477599615
 30
0.0
 11
2921.488305159871
 21
1711.529477599615
 31
0.0
  0
LINE
  5
150A
330
1B
100
AcDbEntity
  8
0
  6
Continuous
 62
     0
100
AcDbLine
 10
2936.24729119667
 20
1711.529477599615
 30
0.0
 11
2934.075725108471
 21
1711.529477599615
 31
0.0
  0
LINE
  5
150B
330
1B
100
AcDbEntity
  8
0
  6
Continuous
 62
     0
100
AcDbLine
 10
2963.53616279907
 20
1711.529477599615
 30
0.0
 11
2961.36459746427
 21
1711.529477599615
 31
0.0
  0
LINE
  5
150C
330
1B
100
AcDbEntity
  8
0
  6
Continuous
 62
     0
100
AcDbLine
 10
2976.123581340271
 20
1711.529477599615
 30
0.0
 11
2976.09479769807
 21
1711.529477599615
 31
0.0
  0
LINE
  5
1521
330
1B
100
AcDbEntity
  8
0
  6
Continuous
 62
     0
100
AcDbLine
 10
2920.30213069987
 20
1709.597625947015
 30
0.0
 11
2920.00594325007
 21
1709.597625947015
 31
0.0
  0
LINE
  5
1522
330
1B
100
AcDbEntity
  8
0
  6
Continuous
 62
     0
100
AcDbLine
 10
2936.48522898507
 20
1709.597625947015
 30
0.0
 11
2932.62284496487
 21
1709.597625947015
 31
0.0
  0
LINE
  5
1523
330
1B
100
AcDbEntity
  8
0
  6
Continuous
 62
     0
100
AcDbLine
 10
2964.98904153507
 20
1709.597625947015
 30
0.0
 11
2961.12665751507
 21
1709.597625947015
 31
0.0
  0
LINE
  5
1524
330
1B
100
AcDbEntity
  8
0
  6
Continuous
 62
     0
100
AcDbLine
 10
2977.60594325007
 20
1709.597625947015
 30
0.0
 11
2977.309755800071
 21
1709.597625947015
 31
0.0
  0
LINE
  5
153E
330
1B
100
AcDbEntity
  8
0
  6
Continuous
 62
     0
100
AcDbLine
 10
2920.005945187471
 20
1700.070102096415
 30
0.0
 11
2977.60594131247
 21
1700.070102096415
 31
0.0
  0
LINE
  5
1556
330
1B
100
AcDbEntity
  8
0
  6
Continuous
 62
     0
100
AcDbLine
 10
2925.305943250071
 20
1699.070102096415
 30
0.0
 11
2972.30594325007
 21
1699.070102096415
 31
0.0
  0
LINE
  5
155C
330
1B
100
AcDbEntity
  8
0
  6
Continuous
 62
     0
100
AcDbLine
 10
2925.305943250071
 20
1693.084315658815
 30
0.0
 11
2972.30594325007
 21
1693.084315658815
 31
0.0
  0
LINE
  5
1568
330
1B
100
AcDbEntity
  8
0
  6
Continuous
 62
     0
100
AcDbLine
 10
2924.50594325007
 20
1691.870102287214
 30
0.0
 11
2973.10594325007
 21
1691.870102287214
 31
0.0
  0
LINE
  5
156E
330
1B
100
AcDbEntity
  8
0
  6
Continuous
 62
     0
100
AcDbLine
 10
2922.80594325007
 20
1690.170102096415
 30
0.0
 11
2974.80594325007
 21
1690.170102096415
 31
0.0
  0
LINE
  5
1575
330
1B
100
AcDbEntity
  8
0
  6
Continuous
 62
     0
100
AcDbLine
 10
2974.688785962471
 20
1681.152944809015
 30
0.0
 11
2922.923100537471
 21
1681.152944809015
 31
0.0
  0
LINE
  5
1580
330
1B
100
AcDbEntity
  8
0
  6
Continuous
 62
     0
100
AcDbLine
 10
2924.50594325007
 20
1679.570102096415
 30
0.0
 11
2973.10594325007
 21
1679.570102096415
 31
0.0
  0
LINE
  5
1583
330
1B
100
AcDbEntity
  8
DEFAULT_1
  6
CENTER
 62
     0
100
AcDbLine
 10
3148.805943250071
 20
1669.070102096415
 30
0.0
 11
3148.805943250071
 21
1806.070102096415
 31
0.0
  0
LINE
  5
158B
330
1B
100
AcDbEntity
  8
0
  6
Continuous
 62
     0
100
AcDbLine
 10
2972.44025782507
 20
1679.070102096414
 30
0.0
 11
2925.171628674871
 21
1679.070102096414
 31
0.0
  0
LINE
  5
159D
330
1B
100
AcDbEntity
  8
0
  6
Continuous
 62
     0
100
AcDbLine
 10
2976.123581340271
 20
1711.529477599615
 30
0.0
 11
2974.10594325007
 21
1712.070102096415
 31
0.0
  0
LINE
  5
15A2
330
1B
100
AcDbEntity
  8
0
  6
Continuous
 62
     0
100
AcDbLine
 10
2972.72310053747
 20
1679.187259384015
 30
0.0
 11
2974.688785962471
 21
1681.152944809015
 31
0.0
  0
LINE
  5
15B2
330
1B
100
AcDbEntity
  8
DEFAULT_1
  6
CENTER
 62
     0
100
AcDbLine
 10
3048.80594325007
 20
1669.070102096415
 30
0.0
 11
3048.80594325007
 21
1806.070102096415
 31
0.0
  0
LINE
  5
15B5
330
1B
100
AcDbEntity
  8
0
  6
Continuous
 62
     0
100
AcDbLine
 10
2922.80594325007
 20
1690.170102096415
 30
0.0
 11
2925.013050031271
 21
1692.377208877615
 31
0.0
  0
LINE
  5
15C3
330
1B
100
AcDbEntity
  8
0
  6
Continuous
 62
     0
100
AcDbLine
 10
2974.80594325007
 20
1690.170102096415
 30
0.0
 11
2972.598836468871
 21
1692.377208877615
 31
0.0
  0
LINE
  5
15C4
330
1B
100
AcDbEntity
  8
0
  6
Continuous
 62
     0
100
AcDbLine
 10
2924.88878596247
 20
1679.187259384015
 30
0.0
 11
2922.923100537471
 21
1681.152944809015
 31
0.0
  0
LINE
  5
15C5
330
1B
100
AcDbEntity
  8
0
  6
Continuous
 62
     0
100
AcDbLine
 10
2961.12665751507
 20
1709.597625947015
 30
0.0
 11
2961.364630313671
 21
1711.529477599615
 31
0.0
  0
LINE
  5
15C6
330
1B
100
AcDbEntity
  8
0
  6
Continuous
 62
     0
100
AcDbLine
 10
2977.60594325007
 20
1700.070102096415
 30
0.0
 11
2977.60594325007
 21
1709.597625947015
 31
0.0
  0
LINE
  5
15C9
330
1B
100
AcDbEntity
  8
0
  6
Continuous
 62
     0
100
AcDbLine
 10
2974.80594325007
 20
1681.435787521415
 30
0.0
 11
2974.80594325007
 21
1690.170102096415
 31
0.0
  0
LINE
  5
15CA
330
1B
100
AcDbEntity
  8
0
  6
Continuous
 62
     0
100
AcDbLine
 10
2973.10594325007
 20
1679.570102096415
 30
0.0
 11
2973.10594325007
 21
1691.870102096415
 31
0.0
  0
LINE
  5
15CB
330
1B
100
AcDbEntity
  8
0
  6
Continuous
 62
     0
100
AcDbLine
 10
2972.30594325007
 20
1693.084315658815
 30
0.0
 11
2972.30594325007
 21
1699.070102096415
 31
0.0
  0
LINE
  5
15CC
330
1B
100
AcDbEntity
  8
0
  6
Continuous
 62
     0
100
AcDbLine
 10
2964.98904153507
 20
1709.597625947215
 30
0.0
 11
2964.98904153507
 21
1700.070102096415
 31
0.0
  0
LINE
  5
15CF
330
1B
100
AcDbEntity
  8
0
  6
Continuous
 62
     0
100
AcDbLine
 10
2961.12665751507
 20
1700.070102096415
 30
0.0
 11
2961.12665751507
 21
1709.597625947215
 31
0.0
  0
LINE
  5
15D3
330
1B
100
AcDbEntity
  8
DEFAULT_1
  6
CENTER
 62
     0
100
AcDbLine
 10
2948.805943250071
 20
1669.070102096415
 30
0.0
 11
2948.805943250071
 21
1806.070102096415
 31
0.0
  0
LINE
  5
15D4
330
1B
100
AcDbEntity
  8
0
  6
Continuous
 62
     0
100
AcDbLine
 10
2936.48522898507
 20
1709.597625947015
 30
0.0
 11
2936.24725618647
 21
1711.529477599615
 31
0.0
  0
LINE
  5
15D9
330
1B
100
AcDbEntity
  8
0
  6
Continuous
 62
     0
100
AcDbLine
 10
2936.48522898507
 20
1709.597625947215
 30
0.0
 11
2936.48522898507
 21
1700.070102096415
 31
0.0
  0
LINE
  5
15DC
330
1B
100
AcDbEntity
  8
0
  6
Continuous
 62
     0
100
AcDbLine
 10
2932.62284496487
 20
1700.070102096415
 30
0.0
 11
2932.62284496487
 21
1709.597625947215
 31
0.0
  0
LINE
  5
15DD
330
1B
100
AcDbEntity
  8
0
  6
Continuous
 62
     0
100
AcDbLine
 10
2925.305943250071
 20
1693.084315658815
 30
0.0
 11
2925.305943250071
 21
1699.070102096415
 31
0.0
  0
LINE
  5
15DE
330
1B
100
AcDbEntity
  8
0
  6
Continuous
 62
     0
100
AcDbLine
 10
2924.50594325007
 20
1679.570102096415
 30
0.0
 11
2924.50594325007
 21
1691.870102096415
 31
0.0
  0
LINE
  5
15DF
330
1B
100
AcDbEntity
  8
0
  6
Continuous
 62
     0
100
AcDbLine
 10
2922.80594325007
 20
1681.435787521415
 30
0.0
 11
2922.80594325007
 21
1690.170102096415
 31
0.0
  0
LINE
  5
15E2
330
1B
100
AcDbEntity
  8
0
  6
Continuous
 62
     0
100
AcDbLine
 10
2920.00594325007
 20
1700.070102096415
 30
0.0
 11
2920.00594325007
 21
1709.597625947015
 31
0.0
  0
LINE
  5
1703
330
1B
100
AcDbEntity
  8
0
  6
Continuous
 62
     0
100
AcDbLine
 10
2900.845173734471
 20
1791.462922419615
 30
0.0
 11
2900.845173734471
 21
1716.677281773415
 31
0.0
  0
LINE
  5
1704
330
1B
100
AcDbEntity
  8
0
  6
Continuous
 62
     0
100
AcDbLine
 10
2900.89876357307
 20
1716.477281773414
 30
0.0
 11
2903.44324994587
 21
1712.070102096415
 31
0.0
  0
LINE
  5
1705
330
1B
100
AcDbEntity
  8
0
  6
Continuous
 62
     0
100
AcDbLine
 10
2900.89876357307
 20
1791.662922419615
 30
0.0
 11
2903.44324994587
 21
1796.070102096415
 31
0.0
  0
ARC
  5
1706
330
1B
100
AcDbEntity
  8
0
  6
Continuous
 62
     0
100
AcDbCircle
 10
2901.245173734471
 20
1716.677281773415
 30
0.0
 40
0.4
100
AcDbArc
 50
180.0
 51
210.0
  0
ARC
  5
1707
330
1B
100
AcDbEntity
  8
0
  6
Continuous
 62
     0
100
AcDbCircle
 10
2901.245173734471
 20
1791.462922419615
 30
0.0
 40
0.4
100
AcDbArc
 50
150.0
 51
180.0
  0
SPLINE
  5
1708
330
1B
100
AcDbEntity
  8
0
  6
Continuous
 62
     0
100
AcDbSpline
210
0.0
220
0.0
230
1.0
 70
     8
 71
     3
 72
    10
 73
     6
 74
     4
 42
0.0000000001
 43
0.0000000001
 44
0.0000000001
 40
0.0
 40
0.0
 40
0.0
 40
0.0
 40
3.944272301259371
 40
7.455150329774974
 40
10.62775311740771
 40
10.62775311740771
 40
10.62775311740771
 40
10.62775311740771
 10
2906.13942123587
 20
1714.070102096415
 30
0.0
 10
2905.564809462618
 20
1715.25265216516
 30
0.0
 10
2904.478723912821
 20
1717.487814410973
 30
0.0
 10
2902.972006867817
 20
1720.6942002502
 30
0.0
 10
2902.056216387355
 20
1722.725122219102
 30
0.0
 10
2901.62149688847
 20
1723.689187034615
 30
0.0
 11
2906.13942123587
 21
1714.070102096415
 31
0.0
 11
2904.42374660507
 21
1717.621685482415
 31
0.0
 11
2902.93280735647
 21
1720.800264518415
 31
0.0
 11
2901.62149688847
 21
1723.689187034615
 31
0.0
  0
SPLINE
  5
1709
330
1B
100
AcDbEntity
  8
0
  6
Continuous
 62
     0
100
AcDbSpline
210
0.0
220
0.0
230
1.0
 70
     8
 71
     3
 72
    13
 73
     9
 74
     7
 42
0.0000000001
 43
0.0000000001
 44
0.0000000001
 40
0.0
 40
0.0
 40
0.0
 40
0.0
 40
0.6159258697130977
 40
1.196987421087253
 40
1.729777095033908
 40
2.209690828980604
 40
2.63742208955486
 40
3.014542979679754
 40
3.014542979679754
 40
3.014542979679754
 40
3.014542979679754
 10
2901.62149688847
 20
1723.689187034615
 30
0.0
 10
2901.540336653256
 20
1723.87781999291
 30
0.0
 10
2901.382610236134
 20
1724.244408391586
 30
0.0
 10
2901.188132866435
 20
1724.787581974358
 30
0.0
 10
2901.035084418956
 20
1725.29668007978
 30
0.0
 10
2900.927831293319
 20
1725.764873790418
 30
0.0
 10
2900.859403005941
 20
1726.188555571006
 30
0.0
 10
2900.84971373271
 20
1726.456881112246
 30
0.0
 10
2900.845173734471
 20
1726.582607516614
 30
0.0
 11
2901.62149688847
 21
1723.689187034615
 31
0.0
 11
2901.38414577107
 21
1724.257543546015
 31
0.0
 11
2901.187676791871
 21
1724.804382157214
 31
0.0
 11
2901.036053104871
 21
1725.315141488215
 31
0.0
 11
2900.92932478287
 21
1725.783037050615
 31
0.0
 11
2900.86607792567
 21
1726.206066442415
 31
0.0
 11
2900.845173734471
 21
1726.582607516614
 31
0.0
  0
SPLINE
  5
170A
330
1B
100
AcDbEntity
  8
0
  6
Continuous
 62
     0
100
AcDbSpline
210
0.0
220
0.0
230
1.0
 70
     8
 71
     3
 72
    13
 73
     9
 74
     7
 42
0.0000000001
 43
0.0000000001
 44
0.0000000001
 40
0.0
 40
0.0
 40
0.0
 40
0.0
 40
0.615925869713937
 40
1.196987421088307
 40
1.729777095225686
 40
2.209690828978413
 40
2.637422089551544
 40
3.014542979677574
 40
3.014542979677574
 40
3.014542979677574
 40
3.014542979677574
 10
2901.62149688847
 20
1784.451017158415
 30
0.0
 10
2901.540336653259
 20
1784.262384200119
 30
0.0
 10
2901.38261023614
 20
1783.895795801441
 30
0.0
 10
2901.188132866386
 20
1783.352622218619
 30
0.0
 10
2901.035084419024
 20
1782.843524113165
 30
0.0
 10
2900.927831293289
 20
1782.375330402553
 30
0.0
 10
2900.859403005946
 20
1781.951648622021
 30
0.0
 10
2900.84971373271
 20
1781.683323080783
 30
0.0
 10
2900.845173734471
 20
1781.557596676415
 30
0.0
 11
2901.62149688847
 21
1784.451017158415
 31
0.0
 11
2901.38414577107
 21
1783.882660647014
 31
0.0
 11
2901.187676791871
 21
1783.335822035815
 31
0.0
 11
2901.036053104871
 21
1782.825062704615
 31
0.0
 11
2900.92932478287
 21
1782.357167142414
 31
0.0
 11
2900.86607792567
 21
1781.934137750615
 31
0.0
 11
2900.845173734471
 21
1781.557596676415
 31
0.0
  0
SPLINE
  5
170B
330
1B
100
AcDbEntity
  8
0
  6
Continuous
 62
     0
100
AcDbSpline
210
0.0
220
0.0
230
1.0
 70
     8
 71
     3
 72
    17
 73
    13
 74
    11
 42
0.0000000001
 43
0.0000000001
 44
0.0000000001
 40
0.0
 40
0.0
 40
0.0
 40
0.0
 40
0.3702355800824682
 40
0.7132766645471629
 40
1.031990812018781
 40
1.30905071145543
 40
1.54745304755784
 40
1.741496769444099
 40
1.894949254657192
 40
2.009609641037462
 40
2.093233833223829
 40
2.170721257505253
 40
2.170721257505253
 40
2.170721257505253
 40
2.170721257505253
 10
2906.13942123587
 20
1794.070102096415
 30
0.0
 10
2906.192424704928
 20
1794.181572093718
 30
0.0
 10
2906.294538439138
 20
1794.396324408598
 30
0.0
 10
2906.425892662996
 20
1794.714415868359
 30
0.0
 10
2906.533006704019
 20
1795.008571421093
 30
0.0
 10
2906.614315243617
 20
1795.27460814699
 30
0.0
 10
2906.66904715368
 20
1795.504978156308
 30
0.0
 10
2906.698443519195
 20
1795.698118574303
 30
0.0
 10
2906.702810658155
 20
1795.853321601932
 30
0.0
 10
2906.684386866987
 20
1795.968491242053
 30
0.0
 10
2906.634306720661
 20
1796.055349920403
 30
0.0
 10
2906.579028763581
 20
1796.065311179745
 30
0.0
 10
2906.55244255827
 20
1796.070102096415
 30
0.0
 11
2906.13942123587
 21
1794.070102096415
 31
0.0
 11
2906.29538006527
 21
1794.405886593215
 31
0.0
 11
2906.42664398627
 21
1794.722820290815
 31
0.0
 11
2906.53492499367
 21
1795.022576744015
 31
0.0
 11
2906.61505561987
 21
1795.287796031814
 31
0.0
 11
2906.66892469007
 21
1795.520032543015
 31
0.0
 11
2906.696067495471
 21
1795.712168521214
 31
0.0
 11
2906.69774694787
 21
1795.865611815814
 31
0.0
 11
2906.67419341727
 21
1795.977826945815
 31
0.0
 11
2906.626182262471
 21
1796.046295438815
 31
0.0
 11
2906.55244255827
 21
1796.070102096415
 31
0.0
  0
SPLINE
  5
170C
330
1B
100
AcDbEntity
  8
0
  6
Continuous
 62
     0
100
AcDbSpline
210
0.0
220
0.0
230
1.0
 70
     8
 71
     3
 72
    17
 73
    13
 74
    11
 42
0.0000000001
 43
0.0000000001
 44
0.0000000001
 40
0.0
 40
0.0
 40
0.0
 40
0.0
 40
0.0790152363915096
 40
0.1654780735725182
 40
0.2849676130658986
 40
0.4436838892336203
 40
0.6410712001778207
 40
0.8795597322969497
 40
1.151875649783426
 40
1.46382487851074
 40
1.800977896421131
 40
2.170587052730936
 40
2.170587052730936
 40
2.170587052730936
 40
2.170587052730936
 10
2906.55244255827
 20
1712.070102096415
 30
0.0
 10
2906.579564204844
 20
1712.075154188106
 30
0.0
 10
2906.636363855546
 20
1712.085734557649
 30
0.0
 10
2906.686251051553
 20
1712.176860994642
 30
0.0
 10
2906.703382895567
 20
1712.296351940031
 30
0.0
 10
2906.697062059623
 20
1712.456038485737
 30
0.0
 10
2906.665676907556
 20
1712.651760548913
 30
0.0
 10
2906.60985224084
 20
1712.881410715698
 30
0.0
 10
2906.528863621388
 20
1713.143547603284
 30
0.0
 10
2906.423326479043
 20
1713.432097601659
 30
0.0
 10
2906.293526788442
 20
1713.746034739336
 30
0.0
 10
2906.192338683273
 20
1713.958822411571
 30
0.0
 10
2906.13942123587
 20
1714.070102096415
 30
0.0
 11
2906.55244255827
 21
1712.070102096415
 31
0.0
 11
2906.62746203127
 21
1712.094911091815
 31
0.0
 11
2906.675820032871
 21
1712.166586233214
 31
0.0
 11
2906.69844696767
 21
1712.283913859415
 31
0.0
 11
2906.69478220507
 21
1712.442587820214
 31
0.0
 11
2906.66551852167
 21
1712.637793832815
 31
0.0
 11
2906.610335341671
 21
1712.869810204215
 31
0.0
 11
2906.53072131427
 21
1713.130228263415
 31
0.0
 11
2906.424282639671
 21
1713.423457064615
 31
0.0
 11
2906.29512812047
 21
1713.734891275414
 31
0.0
 11
2906.13942123587
 21
1714.070102096415
 31
0.0
  0
SPLINE
  5
170D
330
1B
100
AcDbEntity
  8
0
  6
Continuous
 62
     0
100
AcDbSpline
210
0.0
220
0.0
230
1.0
 70
     8
 71
     3
 72
    10
 73
     6
 74
     4
 42
0.0000000001
 43
0.0000000001
 44
0.0000000001
 40
0.0
 40
0.0
 40
0.0
 40
0.0
 40
3.177739620921875
 40
6.686168742790002
 40
10.62775310994228
 40
10.62775310994228
 40
10.62775310994228
 40
10.62775310994228
 10
2901.62149688847
 20
1784.451017158415
 30
0.0
 10
2902.056926087863
 20
1785.416640328539
 30
0.0
 10
2902.973097155974
 20
1787.448373644538
 30
0.0
 10
2904.479857773934
 20
1790.654738774902
 30
0.0
 10
2905.565198946736
 20
1792.888358951495
 30
0.0
 10
2906.13942123587
 20
1794.070102096415
 30
0.0
 11
2901.62149688847
 21
1784.451017158415
 31
0.0
 11
2902.93496017047
 21
1787.344603740015
 31
0.0
 11
2904.42490211927
 21
1790.520945644215
 31
0.0
 11
2906.13942123587
 21
1794.070102096415
 31
0.0
  0
SPLINE
  5
170F
330
1B
100
AcDbEntity
  8
0
  6
Continuous
 62
     0
100
AcDbSpline
210
0.0
220
0.0
230
1.0
 70
     8
 71
     3
 72
    10
 73
     6
 74
     4
 42
0.0000000001
 43
0.0000000001
 44
0.0000000001
 40
0.0
 40
0.0
 40
0.0
 40
0.0
 40
3.177739620922063
 40
6.686168742789804
 40
10.62775310994248
 40
10.62775310994248
 40
10.62775310994248
 40
10.62775310994248
 10
3496.74094496147
 20
1784.451017158415
 30
0.0
 10
3496.305515762077
 20
1785.416640328539
 30
0.0
 10
3495.389344693966
 20
1787.448373644538
 30
0.0
 10
3493.882584076006
 20
1790.654738774902
 30
0.0
 10
3492.797242903204
 20
1792.888358951495
 30
0.0
 10
3492.22302061407
 20
1794.070102096415
 30
0.0
 11
3496.74094496147
 21
1784.451017158415
 31
0.0
 11
3495.42748167947
 21
1787.344603740015
 31
0.0
 11
3493.937539730671
 21
1790.520945644215
 31
0.0
 11
3492.22302061407
 21
1794.070102096415
 31
0.0
  0
SPLINE
  5
1710
330
1B
100
AcDbEntity
  8
0
  6
Continuous
 62
     0
100
AcDbSpline
210
0.0
220
0.0
230
1.0
 70
     8
 71
     3
 72
    17
 73
    13
 74
    11
 42
0.0000000001
 43
0.0000000001
 44
0.0000000001
 40
0.0
 40
0.0
 40
0.0
 40
0.0
 40
0.0790152363910779
 40
0.1654780735718321
 40
0.2849676130652126
 40
0.4436838892329238
 40
0.6410712001772591
 40
0.8795597322965985
 40
1.15187564978241
 40
1.463824878510189
 40
1.80097789642058
 40
2.170587052729811
 40
2.170587052729811
 40
2.170587052729811
 40
2.170587052729811
 10
3491.80999929167
 20
1712.070102096415
 30
0.0
 10
3491.782877645096
 20
1712.075154188106
 30
0.0
 10
3491.726077994395
 20
1712.085734557649
 30
0.0
 10
3491.676190798389
 20
1712.176860994642
 30
0.0
 10
3491.659058954373
 20
1712.296351940031
 30
0.0
 10
3491.665379790316
 20
1712.456038485737
 30
0.0
 10
3491.696764942386
 20
1712.651760548913
 30
0.0
 10
3491.752589609103
 20
1712.881410715697
 30
0.0
 10
3491.833578228551
 20
1713.143547603284
 30
0.0
 10
3491.9391153709
 20
1713.432097601659
 30
0.0
 10
3492.068915061498
 20
1713.746034739336
 30
0.0
 10
3492.170103166667
 20
1713.95882241157
 30
0.0
 10
3492.22302061407
 20
1714.070102096415
 30
0.0
 11
3491.80999929167
 21
1712.070102096415
 31
0.0
 11
3491.73497981867
 21
1712.094911091815
 31
0.0
 11
3491.68662181707
 21
1712.166586233214
 31
0.0
 11
3491.663994882271
 21
1712.283913859415
 31
0.0
 11
3491.66765964487
 21
1712.442587820214
 31
0.0
 11
3491.696923328271
 21
1712.637793832815
 31
0.0
 11
3491.752106508271
 21
1712.869810204215
 31
0.0
 11
3491.83172053567
 21
1713.130228263415
 31
0.0
 11
3491.93815921027
 21
1713.423457064615
 31
0.0
 11
3492.067313729471
 21
1713.734891275414
 31
0.0
 11
3492.22302061407
 21
1714.070102096415
 31
0.0
  0
SPLINE
  5
1711
330
1B
100
AcDbEntity
  8
0
  6
Continuous
 62
     0
100
AcDbSpline
210
0.0
220
0.0
230
1.0
 70
     8
 71
     3
 72
    17
 73
    13
 74
    11
 42
0.0000000001
 43
0.0000000001
 44
0.0000000001
 40
0.0
 40
0.0
 40
0.0
 40
0.0
 40
0.3702355800824682
 40
0.7132766645471629
 40
1.031990812018781
 40
1.30905071145543
 40
1.547453047557738
 40
1.741496769443869
 40
1.894949254656972
 40
2.009609641037429
 40
2.093233833223795
 40
2.170721257503921
 40
2.170721257503921
 40
2.170721257503921
 40
2.170721257503921
 10
3492.22302061407
 20
1794.070102096415
 30
0.0
 10
3492.170017145011
 20
1794.181572093718
 30
0.0
 10
3492.067903410803
 20
1794.396324408598
 30
0.0
 10
3491.936549186946
 20
1794.714415868359
 30
0.0
 10
3491.82943514592
 20
1795.008571421093
 30
0.0
 10
3491.748126606324
 20
1795.274608146989
 30
0.0
 10
3491.693394696259
 20
1795.504978156308
 30
0.0
 10
3491.663998330748
 20
1795.698118574303
 30
0.0
 10
3491.659631191786
 20
1795.853321601931
 30
0.0
 10
3491.678054982954
 20
1795.968491242054
 30
0.0
 10
3491.72813512928
 20
1796.055349920403
 30
0.0
 10
3491.783413086359
 20
1796.065311179745
 30
0.0
 10
3491.80999929167
 20
1796.070102096415
 30
0.0
 11
3492.22302061407
 21
1794.070102096415
 31
0.0
 11
3492.06706178467
 21
1794.405886593215
 31
0.0
 11
3491.93579786367
 21
1794.722820290815
 31
0.0
 11
3491.82751685627
 21
1795.022576744015
 31
0.0
 11
3491.74738623007
 21
1795.287796031814
 31
0.0
 11
3491.69351715987
 21
1795.520032543015
 31
0.0
 11
3491.66637435447
 21
1795.712168521214
 31
0.0
 11
3491.66469490207
 21
1795.865611815814
 31
0.0
 11
3491.688248432671
 21
1795.977826945815
 31
0.0
 11
3491.73625958747
 21
1796.046295438815
 31
0.0
 11
3491.80999929167
 21
1796.070102096415
 31
0.0
  0
SPLINE
  5
1712
330
1B
100
AcDbEntity
  8
0
  6
Continuous
 62
     0
100
AcDbSpline
210
0.0
220
0.0
230
1.0
 70
     8
 71
     3
 72
    13
 73
     9
 74
     7
 42
0.0000000001
 43
0.0000000001
 44
0.0000000001
 40
0.0
 40
0.0
 40
0.0
 40
0.0
 40
0.6159258697142875
 40
1.196987421088657
 40
1.729777095226296
 40
2.209690828978517
 40
2.637422089551715
 40
3.014542979677771
 40
3.014542979677771
 40
3.014542979677771
 40
3.014542979677771
 10
3496.74094496147
 20
1784.451017158415
 30
0.0
 10
3496.822105196682
 20
1784.262384200119
 30
0.0
 10
3496.9798316138
 20
1783.895795801442
 30
0.0
 10
3497.174308983555
 20
1783.352622218619
 30
0.0
 10
3497.327357430919
 20
1782.843524113165
 30
0.0
 10
3497.43461055665
 20
1782.375330402552
 30
0.0
 10
3497.503038843995
 20
1781.951648622022
 30
0.0
 10
3497.51272811723
 20
1781.683323080783
 30
0.0
 10
3497.51726811547
 20
1781.557596676415
 30
0.0
 11
3496.74094496147
 21
1784.451017158415
 31
0.0
 11
3496.978296078871
 21
1783.882660647014
 31
0.0
 11
3497.17476505807
 21
1783.335822035815
 31
0.0
 11
3497.326388745071
 21
1782.825062704615
 31
0.0
 11
3497.43311706707
 21
1782.357167142414
 31
0.0
 11
3497.49636392427
 21
1781.934137750615
 31
0.0
 11
3497.51726811547
 21
1781.557596676415
 31
0.0
  0
SPLINE
  5
1713
330
1B
100
AcDbEntity
  8
0
  6
Continuous
 62
     0
100
AcDbSpline
210
0.0
220
0.0
230
1.0
 70
     8
 71
     3
 72
    13
 73
     9
 74
     7
 42
0.0000000001
 43
0.0000000001
 44
0.0000000001
 40
0.0
 40
0.0
 40
0.0
 40
0.0
 40
0.6159258697134482
 40
1.196987421087604
 40
1.729777095034517
 40
2.209690828980708
 40
2.63742208955503
 40
3.01454297967995
 40
3.01454297967995
 40
3.01454297967995
 40
3.01454297967995
 10
3496.74094496147
 20
1723.689187034615
 30
0.0
 10
3496.822105196685
 20
1723.87781999291
 30
0.0
 10
3496.979831613808
 20
1724.244408391586
 30
0.0
 10
3497.174308983507
 20
1724.787581974358
 30
0.0
 10
3497.327357430987
 20
1725.29668007978
 30
0.0
 10
3497.43461055662
 20
1725.764873790417
 30
0.0
 10
3497.503038843999
 20
1726.188555571006
 30
0.0
 10
3497.512728117232
 20
1726.456881112246
 30
0.0
 10
3497.51726811547
 20
1726.582607516614
 30
0.0
 11
3496.74094496147
 21
1723.689187034615
 31
0.0
 11
3496.978296078871
 21
1724.257543546015
 31
0.0
 11
3497.17476505807
 21
1724.804382157214
 31
0.0
 11
3497.326388745071
 21
1725.315141488215
 31
0.0
 11
3497.43311706707
 21
1725.783037050615
 31
0.0
 11
3497.49636392427
 21
1726.206066442415
 31
0.0
 11
3497.51726811547
 21
1726.582607516614
 31
0.0
  0
SPLINE
  5
1714
330
1B
100
AcDbEntity
  8
0
  6
Continuous
 62
     0
100
AcDbSpline
210
0.0
220
0.0
230
1.0
 70
     8
 71
     3
 72
    10
 73
     6
 74
     4
 42
0.0000000001
 43
0.0000000001
 44
0.0000000001
 40
0.0
 40
0.0
 40
0.0
 40
0.0
 40
3.944272301259767
 40
7.455150329775563
 40
10.62775311740793
 40
10.62775311740793
 40
10.62775311740793
 40
10.62775311740793
 10
3492.22302061407
 20
1714.070102096415
 30
0.0
 10
3492.797632387324
 20
1715.252652165161
 30
0.0
 10
3493.88371793712
 20
1717.487814410974
 30
0.0
 10
3495.390434982123
 20
1720.694200250199
 30
0.0
 10
3496.306225462586
 20
1722.725122219102
 30
0.0
 10
3496.74094496147
 20
1723.689187034615
 30
0.0
 11
3492.22302061407
 21
1714.070102096415
 31
0.0
 11
3493.938695244871
 21
1717.621685482415
 31
0.0
 11
3495.429634493471
 21
1720.800264518415
 31
0.0
 11
3496.74094496147
 21
1723.689187034615
 31
0.0
  0
ARC
  5
1715
330
1B
100
AcDbEntity
  8
0
  6
Continuous
 62
     0
100
AcDbCircle
 10
3497.11726811547
 20
1791.462922419615
 30
0.0
 40
0.4
100
AcDbArc
 50
0.000000000000007
 51
29.99999999999995
  0
ARC
  5
1716
330
1B
100
AcDbEntity
  8
0
  6
Continuous
 62
     0
100
AcDbCircle
 10
3497.11726811547
 20
1716.677281773415
 30
0.0
 40
0.4
100
AcDbArc
 50
330.0000000000001
 51
0.000000000000007
  0
LINE
  5
1717
330
1B
100
AcDbEntity
  8
0
  6
Continuous
 62
     0
100
AcDbLine
 10
3497.463678276871
 20
1791.662922419615
 30
0.0
 11
3494.91919190407
 21
1796.070102096415
 31
0.0
  0
LINE
  5
1718
330
1B
100
AcDbEntity
  8
0
  6
Continuous
 62
     0
100
AcDbLine
 10
3497.463678276871
 20
1716.477281773414
 30
0.0
 11
3494.91919190407
 21
1712.070102096415
 31
0.0
  0
LINE
  5
1719
330
1B
100
AcDbEntity
  8
0
  6
Continuous
 62
     0
100
AcDbLine
 10
3497.51726811547
 20
1791.462922419615
 30
0.0
 11
3497.51726811547
 21
1716.677281773415
 31
0.0
  0
LINE
  5
171A
330
1B
100
AcDbEntity
  8
0
  6
Continuous
 62
     0
100
AcDbLine
 10
3020.00594325007
 20
1700.070102096415
 30
0.0
 11
3020.00594325007
 21
1709.597625947015
 31
0.0
  0
LINE
  5
171B
330
1B
100
AcDbEntity
  8
0
  6
Continuous
 62
     0
100
AcDbLine
 10
3022.80594325007
 20
1681.435787521415
 30
0.0
 11
3022.80594325007
 21
1690.170102096415
 31
0.0
  0
LINE
  5
171C
330
1B
100
AcDbEntity
  8
0
  6
Continuous
 62
     0
100
AcDbLine
 10
3024.50594325007
 20
1679.570102096415
 30
0.0
 11
3024.50594325007
 21
1691.870102096415
 31
0.0
  0
LINE
  5
171D
330
1B
100
AcDbEntity
  8
0
  6
Continuous
 62
     0
100
AcDbLine
 10
3025.305943250071
 20
1693.084315658815
 30
0.0
 11
3025.305943250071
 21
1699.070102096415
 31
0.0
  0
LINE
  5
171E
330
1B
100
AcDbEntity
  8
0
  6
Continuous
 62
     0
100
AcDbLine
 10
3032.62284496487
 20
1700.070102096415
 30
0.0
 11
3032.62284496487
 21
1709.597625947215
 31
0.0
  0
LINE
  5
171F
330
1B
100
AcDbEntity
  8
0
  6
Continuous
 62
     0
100
AcDbLine
 10
3036.48522898507
 20
1709.597625947215
 30
0.0
 11
3036.48522898507
 21
1700.070102096415
 31
0.0
  0
LINE
  5
1720
330
1B
100
AcDbEntity
  8
0
  6
Continuous
 62
     0
100
AcDbLine
 10
3036.48522898507
 20
1709.597625947015
 30
0.0
 11
3036.247256186471
 21
1711.529477599615
 31
0.0
  0
LINE
  5
1721
330
1B
100
AcDbEntity
  8
0
  6
Continuous
 62
     0
100
AcDbLine
 10
3061.126657515071
 20
1700.070102096415
 30
0.0
 11
3061.126657515071
 21
1709.597625947215
 31
0.0
  0
LINE
  5
1722
330
1B
100
AcDbEntity
  8
0
  6
Continuous
 62
     0
100
AcDbLine
 10
3064.98904153507
 20
1709.597625947215
 30
0.0
 11
3064.98904153507
 21
1700.070102096415
 31
0.0
  0
LINE
  5
1723
330
1B
100
AcDbEntity
  8
0
  6
Continuous
 62
     0
100
AcDbLine
 10
3072.30594325007
 20
1693.084315658815
 30
0.0
 11
3072.30594325007
 21
1699.070102096415
 31
0.0
  0
LINE
  5
1724
330
1B
100
AcDbEntity
  8
0
  6
Continuous
 62
     0
100
AcDbLine
 10
3073.10594325007
 20
1679.570102096415
 30
0.0
 11
3073.10594325007
 21
1691.870102096415
 31
0.0
  0
LINE
  5
1725
330
1B
100
AcDbEntity
  8
0
  6
Continuous
 62
     0
100
AcDbLine
 10
3074.80594325007
 20
1681.435787521415
 30
0.0
 11
3074.80594325007
 21
1690.170102096415
 31
0.0
  0
LINE
  5
1726
330
1B
100
AcDbEntity
  8
0
  6
Continuous
 62
     0
100
AcDbLine
 10
3077.60594325007
 20
1700.070102096415
 30
0.0
 11
3077.60594325007
 21
1709.597625947015
 31
0.0
  0
LINE
  5
1727
330
1B
100
AcDbEntity
  8
0
  6
Continuous
 62
     0
100
AcDbLine
 10
3061.126657515071
 20
1709.597625947015
 30
0.0
 11
3061.364630313671
 21
1711.529477599615
 31
0.0
  0
LINE
  5
1728
330
1B
100
AcDbEntity
  8
0
  6
Continuous
 62
     0
100
AcDbLine
 10
3024.88878596247
 20
1679.187259384015
 30
0.0
 11
3022.92310053747
 21
1681.152944809015
 31
0.0
  0
LINE
  5
1729
330
1B
100
AcDbEntity
  8
0
  6
Continuous
 62
     0
100
AcDbLine
 10
3074.80594325007
 20
1690.170102096415
 30
0.0
 11
3072.59883646887
 21
1692.377208877615
 31
0.0
  0
LINE
  5
172A
330
1B
100
AcDbEntity
  8
0
  6
Continuous
 62
     0
100
AcDbLine
 10
3022.80594325007
 20
1690.170102096415
 30
0.0
 11
3025.013050031271
 21
1692.377208877615
 31
0.0
  0
LINE
  5
172B
330
1B
100
AcDbEntity
  8
0
  6
Continuous
 62
     0
100
AcDbLine
 10
3072.72310053747
 20
1679.187259384015
 30
0.0
 11
3074.68878596247
 21
1681.152944809015
 31
0.0
  0
LINE
  5
172C
330
1B
100
AcDbEntity
  8
0
  6
Continuous
 62
     0
100
AcDbLine
 10
3076.123581340271
 20
1711.529477599615
 30
0.0
 11
3074.10594325007
 21
1712.070102096415
 31
0.0
  0
LINE
  5
172D
330
1B
100
AcDbEntity
  8
0
  6
Continuous
 62
     0
100
AcDbLine
 10
3072.44025782507
 20
1679.070102096414
 30
0.0
 11
3025.171628674871
 21
1679.070102096414
 31
0.0
  0
LINE
  5
172E
330
1B
100
AcDbEntity
  8
0
  6
Continuous
 62
     0
100
AcDbLine
 10
3024.50594325007
 20
1679.570102096415
 30
0.0
 11
3073.10594325007
 21
1679.570102096415
 31
0.0
  0
LINE
  5
172F
330
1B
100
AcDbEntity
  8
0
  6
Continuous
 62
     0
100
AcDbLine
 10
3074.68878596247
 20
1681.152944809015
 30
0.0
 11
3022.92310053747
 21
1681.152944809015
 31
0.0
  0
LINE
  5
1730
330
1B
100
AcDbEntity
  8
0
  6
Continuous
 62
     0
100
AcDbLine
 10
3022.80594325007
 20
1690.170102096415
 30
0.0
 11
3074.80594325007
 21
1690.170102096415
 31
0.0
  0
LINE
  5
1731
330
1B
100
AcDbEntity
  8
0
  6
Continuous
 62
     0
100
AcDbLine
 10
3024.50594325007
 20
1691.870102287214
 30
0.0
 11
3073.10594325007
 21
1691.870102287214
 31
0.0
  0
LINE
  5
1732
330
1B
100
AcDbEntity
  8
0
  6
Continuous
 62
     0
100
AcDbLine
 10
3025.305943250071
 20
1693.084315658815
 30
0.0
 11
3072.30594325007
 21
1693.084315658815
 31
0.0
  0
LINE
  5
1733
330
1B
100
AcDbEntity
  8
0
  6
Continuous
 62
     0
100
AcDbLine
 10
3025.305943250071
 20
1699.070102096415
 30
0.0
 11
3072.30594325007
 21
1699.070102096415
 31
0.0
  0
LINE
  5
1734
330
1B
100
AcDbEntity
  8
0
  6
Continuous
 62
     0
100
AcDbLine
 10
3020.005945187471
 20
1700.070102096415
 30
0.0
 11
3077.60594131247
 21
1700.070102096415
 31
0.0
  0
LINE
  5
1735
330
1B
100
AcDbEntity
  8
0
  6
Continuous
 62
     0
100
AcDbLine
 10
3077.60594325007
 20
1709.597625947015
 30
0.0
 11
3077.309755800071
 21
1709.597625947015
 31
0.0
  0
LINE
  5
1736
330
1B
100
AcDbEntity
  8
0
  6
Continuous
 62
     0
100
AcDbLine
 10
3064.98904153507
 20
1709.597625947015
 30
0.0
 11
3061.126657515071
 21
1709.597625947015
 31
0.0
  0
LINE
  5
1737
330
1B
100
AcDbEntity
  8
0
  6
Continuous
 62
     0
100
AcDbLine
 10
3036.48522898507
 20
1709.597625947015
 30
0.0
 11
3032.62284496487
 21
1709.597625947015
 31
0.0
  0
LINE
  5
1738
330
1B
100
AcDbEntity
  8
0
  6
Continuous
 62
     0
100
AcDbLine
 10
3020.30213069987
 20
1709.597625947015
 30
0.0
 11
3020.00594325007
 21
1709.597625947015
 31
0.0
  0
LINE
  5
1739
330
1B
100
AcDbEntity
  8
0
  6
Continuous
 62
     0
100
AcDbLine
 10
3076.123581340271
 20
1711.529477599615
 30
0.0
 11
3076.094797698071
 21
1711.529477599615
 31
0.0
  0
LINE
  5
173A
330
1B
100
AcDbEntity
  8
0
  6
Continuous
 62
     0
100
AcDbLine
 10
3063.53616279907
 20
1711.529477599615
 30
0.0
 11
3061.36459746427
 21
1711.529477599615
 31
0.0
  0
LINE
  5
173B
330
1B
100
AcDbEntity
  8
0
  6
Continuous
 62
     0
100
AcDbLine
 10
3036.24729119667
 20
1711.529477599615
 30
0.0
 11
3034.075725108471
 21
1711.529477599615
 31
0.0
  0
LINE
  5
173C
330
1B
100
AcDbEntity
  8
0
  6
Continuous
 62
     0
100
AcDbLine
 10
3021.51708880287
 20
1711.529477599615
 30
0.0
 11
3021.48830515987
 21
1711.529477599615
 31
0.0
  0
LINE
  5
173D
330
1B
100
AcDbEntity
  8
0
  6
Continuous
 62
     0
100
AcDbLine
 10
3021.48830515987
 20
1711.529477599615
 30
0.0
 11
3023.50594325007
 21
1712.070102096415
 31
0.0
  0
ARC
  5
173E
330
1B
100
AcDbEntity
  8
0
  6
Continuous
 62
     0
100
AcDbCircle
 10
3072.44025782507
 20
1679.470102096415
 30
0.0
 40
0.4
100
AcDbArc
 50
270.0000000000004
 51
314.9999999916998
  0
ARC
  5
173F
330
1B
100
AcDbEntity
  8
0
  6
Continuous
 62
     0
100
AcDbCircle
 10
3025.171628674871
 20
1679.470102096415
 30
0.0
 40
0.4
100
AcDbArc
 50
225.0000000064017
 51
270.0000000000004
  0
ARC
  5
1740
330
1B
100
AcDbEntity
  8
0
  6
Continuous
 62
     0
100
AcDbCircle
 10
3074.40594325007
 20
1681.435787521415
 30
0.0
 40
0.4
100
AcDbArc
 50
314.9999999997991
 51
0.0
  0
ARC
  5
1741
330
1B
100
AcDbEntity
  8
0
  6
Continuous
 62
     0
100
AcDbCircle
 10
3023.20594325007
 20
1681.435787521415
 30
0.0
 40
0.4
100
AcDbArc
 50
180.0
 51
225.0000000002018
  0
ARC
  5
1742
330
1B
100
AcDbEntity
  8
0
  6
Continuous
 62
     0
100
AcDbCircle
 10
3075.60594325007
 20
1709.597625947015
 30
0.0
 40
2.0
100
AcDbArc
 50
0.0
 51
75.00000000000044
  0
ARC
  5
1743
330
1B
100
AcDbEntity
  8
0
  6
Continuous
 62
     0
100
AcDbCircle
 10
3022.00594325007
 20
1709.597625947015
 30
0.0
 40
2.0
100
AcDbArc
 50
105.0
 51
180.0
  0
ARC
  5
1744
330
1B
100
AcDbEntity
  8
0
  6
Continuous
 62
     0
100
AcDbCircle
 10
3073.30594325007
 20
1699.070102096415
 30
0.0
 40
1.0
100
AcDbArc
 50
90.0
 51
180.0
  0
ARC
  5
1745
330
1B
100
AcDbEntity
  8
0
  6
Continuous
 62
     0
100
AcDbCircle
 10
3024.30594325007
 20
1699.070102096415
 30
0.0
 40
1.0
100
AcDbArc
 50
0.0
 51
90.0
  0
ARC
  5
1746
330
1B
100
AcDbEntity
  8
0
  6
Continuous
 62
     0
100
AcDbCircle
 10
3073.30594325007
 20
1693.084315658815
 30
0.0
 40
1.0
100
AcDbArc
 50
180.0
 51
225.0000000004992
  0
ARC
  5
1747
330
1B
100
AcDbEntity
  8
0
  6
Continuous
 62
     0
100
AcDbCircle
 10
3024.30594325007
 20
1693.084315658815
 30
0.0
 40
1.0
100
AcDbArc
 50
314.9999999994006
 51
0.0
  0
SPLINE
  5
1748
330
1B
100
AcDbEntity
  8
0
  6
Continuous
 62
     0
100
AcDbSpline
210
0.0
220
0.0
230
1.0
 70
     8
 71
     3
 72
    10
 73
     6
 74
     4
 42
0.0000000001
 43
0.0000000001
 44
0.0000000001
 40
0.0
 40
0.0
 40
0.0
 40
0.0
 40
0.9356392924644608
 40
1.855790929781357
 40
2.760540377482087
 40
2.760540377482087
 40
2.760540377482087
 40
2.760540377482087
 10
3077.309755800071
 20
1709.597625948015
 30
0.0
 10
3077.006319409131
 20
1709.669753181815
 30
0.0
 10
3076.404469415649
 20
1709.812813725929
 30
0.0
 10
3075.502091094769
 20
1709.994454965951
 30
0.0
 10
3074.901393422033
 20
1710.090589075719
 30
0.0
 10
3074.60357953387
 20
1710.138250444015
 30
0.0
 11
3077.309755800071
 21
1709.597625948015
 31
0.0
 11
3076.39823169827
 21
1709.808682095615
 31
0.0
 11
3075.495997330071
 21
1709.989381239214
 31
0.0
 11
3074.60357953387
 21
1710.138250444015
 31
0.0
  0
SPLINE
  5
1749
330
1B
100
AcDbEntity
  8
0
  6
Continuous
 62
     0
100
AcDbSpline
210
0.0
220
0.0
230
1.0
 70
     8
 71
     3
 72
    11
 73
     7
 74
     5
 42
0.0000000001
 43
0.0000000001
 44
0.0000000001
 40
0.0
 40
0.0
 40
0.0
 40
0.0
 40
1.756137102780883
 40
3.483978265282173
 40
5.201326719776031
 40
6.93321035450232
 40
6.93321035450232
 40
6.93321035450232
 40
6.93321035450232
 10
3074.60357953387
 20
1710.138250444015
 30
0.0
 10
3074.022759248514
 20
1710.213509428925
 30
0.0
 10
3072.870477204587
 20
1710.362814780584
 30
0.0
 10
3071.135491892661
 20
1710.421196078882
 30
0.0
 10
3069.408725086216
 20
1710.360731301663
 30
0.0
 10
3068.267989262649
 20
1710.212618780283
 30
0.0
 10
3067.69521780127
 20
1710.138250444015
 30
0.0
 11
3074.60357953387
 21
1710.138250444015
 31
0.0
 11
3072.85861490867
 21
1710.336028047815
 31
0.0
 11
3071.13201337067
 21
1710.401466658815
 31
0.0
 11
3069.415983946071
 21
1710.334170833815
 31
0.0
 11
3067.69521780127
 21
1710.138250444015
 31
0.0
  0
SPLINE
  5
174A
330
1B
100
AcDbEntity
  8
0
  6
Continuous
 62
     0
100
AcDbSpline
210
0.0
220
0.0
230
1.0
 70
     8
 71
     3
 72
     9
 73
     5
 74
     3
 42
0.0000000001
 43
0.0000000001
 44
0.0000000001
 40
0.0
 40
0.0
 40
0.0
 40
0.0
 40
1.361977045386292
 40
2.760401168772483
 40
2.760401168772483
 40
2.760401168772483
 40
2.760401168772483
 10
3067.69521780127
 20
1710.138250444015
 30
0.0
 10
3067.247021152491
 20
1710.064991095492
 30
0.0
 10
3066.338633924293
 20
1709.916511947497
 30
0.0
 10
3065.442848180274
 20
1709.704852830788
 30
0.0
 10
3064.98904153507
 20
1709.597625947215
 30
0.0
 11
3067.69521780127
 21
1710.138250444015
 31
0.0
 11
3066.35369558307
 21
1709.903091752414
 31
0.0
 11
3064.98904153507
 21
1709.597625947215
 31
0.0
  0
SPLINE
  5
174B
330
1B
100
AcDbEntity
  8
0
  6
Continuous
 62
     0
100
AcDbSpline
210
0.0
220
0.0
230
1.0
 70
     8
 71
     3
 72
    12
 73
     8
 74
     6
 42
0.0000000001
 43
0.0000000001
 44
0.0000000001
 40
0.0
 40
0.0
 40
0.0
 40
0.0
 40
0.533390830264023
 40
1.065066568491357
 40
1.585400896368036
 40
2.087704153360115
 40
2.569317245968927
 40
2.569317245968927
 40
2.569317245968927
 40
2.569317245968927
 10
3064.98904153507
 20
1709.597625947015
 30
0.0
 10
3064.966086056792
 20
1709.774677122778
 30
0.0
 10
3064.920248912451
 20
1710.128210174937
 30
0.0
 10
3064.702653770132
 20
1710.618157082124
 30
0.0
 10
3064.390825928196
 20
1711.035105903964
 30
0.0
 10
3063.998386484502
 20
1711.362294837167
 30
0.0
 10
3063.688027111131
 20
1711.474536767357
 30
0.0
 10
3063.53611060147
 20
1711.529477599615
 30
0.0
 11
3064.98904153507
 21
1709.597625947015
 31
0.0
 11
3064.89500862307
 21
1710.122662697415
 31
0.0
 11
3064.684068959071
 21
1710.610703217015
 31
0.0
 11
3064.37125281967
 21
1711.026508310415
 31
0.0
 11
3063.97900137947
 21
1711.340271548615
 31
0.0
 11
3063.53611060147
 21
1711.529477599615
 31
0.0
  0
SPLINE
  5
174C
330
1B
100
AcDbEntity
  8
0
  6
Continuous
 62
     0
100
AcDbSpline
210
0.0
220
0.0
230
1.0
 70
     8
 71
     3
 72
     9
 73
     5
 74
     3
 42
0.0000000001
 43
0.0000000001
 44
0.0000000001
 40
0.0
 40
0.0
 40
0.0
 40
0.0
 40
1.399291230401882
 40
2.838087538586916
 40
2.838087538586916
 40
2.838087538586916
 40
2.838087538586916
 10
3066.32153608567
 20
1712.070102096415
 30
0.0
 10
3065.860729516426
 20
1711.996939082818
 30
0.0
 10
3064.926106792108
 20
1711.848547502376
 30
0.0
 10
3064.003757046989
 20
1711.636816637707
 30
0.0
 10
3063.53616279907
 20
1711.529477599615
 30
0.0
 11
3066.32153608567
 21
1712.070102096415
 31
0.0
 11
3064.942099799671
 21
1711.835215995615
 31
0.0
 11
3063.53616279907
 21
1711.529477599615
 31
0.0
  0
SPLINE
  5
174D
330
1B
100
AcDbEntity
  8
0
  6
Continuous
 62
     0
100
AcDbSpline
210
0.0
220
0.0
230
1.0
 70
     8
 71
     3
 72
     9
 73
     5
 74
     3
 42
0.0000000001
 43
0.0000000001
 44
0.0000000001
 40
0.0
 40
0.0
 40
0.0
 40
0.0
 40
2.743933187973242
 40
5.439678939620084
 40
5.439678939620084
 40
5.439678939620084
 40
5.439678939620084
 10
3061.126657515071
 20
1709.597625947215
 30
0.0
 10
3060.218239860134
 20
1709.704884206237
 30
0.0
 10
3058.417357678456
 20
1709.917517114086
 30
0.0
 10
3056.609985675157
 20
1710.065108480444
 30
0.0
 10
3055.714304982671
 20
1710.138250444015
 30
0.0
 11
3061.126657515071
 21
1709.597625947215
 31
0.0
 11
3058.399753222471
 21
1709.902850977415
 31
0.0
 11
3055.714304982671
 21
1710.138250444015
 31
0.0
  0
SPLINE
  5
174E
330
1B
100
AcDbEntity
  8
0
  6
Continuous
 62
     0
100
AcDbSpline
210
0.0
220
0.0
230
1.0
 70
     8
 71
     3
 72
     9
 73
     5
 74
     3
 42
0.0000000001
 43
0.0000000001
 44
0.0000000001
 40
0.0
 40
0.0
 40
0.0
 40
0.0
 40
2.790847009492518
 40
5.532865527555573
 40
5.532865527555573
 40
5.532865527555573
 40
5.532865527555573
 10
3061.36459746427
 20
1711.529477599615
 30
0.0
 10
3060.440451068308
 20
1711.636873286978
 30
0.0
 10
3058.608327086145
 20
1711.849785673216
 30
0.0
 10
3056.769768773616
 20
1711.997096636892
 30
0.0
 10
3055.85860241427
 20
1712.070102096415
 30
0.0
 11
3061.36459746427
 21
1711.529477599615
 31
0.0
 11
3058.590521176471
 21
1711.834973556815
 31
0.0
 11
3055.85860241427
 21
1712.070102096415
 31
0.0
  0
SPLINE
  5
174F
330
1B
100
AcDbEntity
  8
0
  6
Continuous
 62
     0
100
AcDbSpline
210
0.0
220
0.0
230
1.0
 70
     8
 71
     3
 72
    11
 73
     7
 74
     5
 42
0.0000000001
 43
0.0000000001
 44
0.0000000001
 40
0.0
 40
0.0
 40
0.0
 40
0.0
 40
3.47350636871925
 40
6.914580222652016
 40
10.35565725050671
 40
13.8291751147245
 40
13.8291751147245
 40
13.8291751147245
 40
13.8291751147245
 10
3055.714304982671
 20
1710.138250444015
 30
0.0
 10
3054.558745794353
 20
1710.213129902781
 30
0.0
 10
3052.258417002214
 20
1710.362189662488
 30
0.0
 10
3048.805949530105
 20
1710.421023200699
 30
0.0
 10
3045.353478212358
 20
1710.362190118228
 30
0.0
 10
3043.053144533411
 20
1710.213130114378
 30
0.0
 10
3041.897581517471
 20
1710.138250444015
 30
0.0
 11
3055.714304982671
 21
1710.138250444015
 31
0.0
 11
3052.24638592687
 21
1710.335186768614
 31
0.0
 11
3048.80595058607
 21
1710.401473524415
 31
0.0
 11
3045.36551206227
 21
1710.335187209215
 31
0.0
 11
3041.897581517471
 21
1710.138250444015
 31
0.0
  0
SPLINE
  5
1750
330
1B
100
AcDbEntity
  8
0
  6
Continuous
 62
     0
100
AcDbSpline
210
0.0
220
0.0
230
1.0
 70
     8
 71
     3
 72
     9
 73
     5
 74
     3
 42
0.0000000001
 43
0.0000000001
 44
0.0000000001
 40
0.0
 40
0.0
 40
0.0
 40
0.0
 40
2.695780945439068
 40
5.439678939338962
 40
5.439678939338962
 40
5.439678939338962
 40
5.439678939338962
 10
3041.897581517471
 20
1710.138250444015
 30
0.0
 10
3041.001889136735
 20
1710.065107448137
 30
0.0
 10
3039.194517143897
 20
1709.917515925573
 30
0.0
 10
3037.393634979729
 20
1709.704882893297
 30
0.0
 10
3036.48522898507
 20
1709.597625947215
 30
0.0
 11
3041.897581517471
 21
1710.138250444015
 31
0.0
 11
3039.21209825627
 21
1709.902847471215
 31
0.0
 11
3036.48522898507
 21
1709.597625947215
 31
0.0
  0
SPLINE
  5
1751
330
1B
100
AcDbEntity
  8
0
  6
Continuous
 62
     0
100
AcDbSpline
210
0.0
220
0.0
230
1.0
 70
     8
 71
     3
 72
     9
 73
     5
 74
     3
 42
0.0000000001
 43
0.0000000001
 44
0.0000000001
 40
0.0
 40
0.0
 40
0.0
 40
0.0
 40
2.742055125415179
 40
5.53286337943142
 40
5.53286337943142
 40
5.53286337943142
 40
5.53286337943142
 10
3041.753284085871
 20
1712.070102096415
 30
0.0
 10
3040.842105564911
 20
1711.9970956031
 30
0.0
 10
3039.003547972095
 20
1711.849784577301
 30
0.0
 10
3037.171424739869
 20
1711.636871955917
 30
0.0
 10
3036.24729119667
 20
1711.529477599615
 30
0.0
 11
3041.753284085871
 21
1712.070102096415
 31
0.0
 11
3039.021328889671
 21
1711.834969970215
 31
0.0
 11
3036.24729119667
 21
1711.529477599615
 31
0.0
  0
SPLINE
  5
1752
330
1B
100
AcDbEntity
  8
0
  6
Continuous
 62
     0
100
AcDbSpline
210
0.0
220
0.0
230
1.0
 70
     8
 71
     3
 72
     9
 73
     5
 74
     3
 42
0.0000000001
 43
0.0000000001
 44
0.0000000001
 40
0.0
 40
0.0
 40
0.0
 40
0.0
 40
1.398484515511454
 40
2.760401170974964
 40
2.760401170974964
 40
2.760401170974964
 40
2.760401170974964
 10
3032.62284496487
 20
1709.597625947215
 30
0.0
 10
3032.169018665656
 20
1709.704857263773
 30
0.0
 10
3031.273232810415
 20
1709.916515990421
 30
0.0
 10
3030.364845509817
 20
1710.064994606364
 30
0.0
 10
3029.91666869867
 20
1710.138250444015
 30
0.0
 11
3032.62284496487
 21
1709.597625947215
 31
0.0
 11
3031.258131685471
 21
1709.903103614414
 31
0.0
 11
3029.91666869867
 21
1710.138250444015
 31
0.0
  0
SPLINE
  5
1753
330
1B
100
AcDbEntity
  8
0
  6
Continuous
 62
     0
100
AcDbSpline
210
0.0
220
0.0
230
1.0
 70
     8
 71
     3
 72
     9
 73
     5
 74
     3
 42
0.0000000001
 43
0.0000000001
 44
0.0000000001
 40
0.0
 40
0.0
 40
0.0
 40
0.0
 40
1.438860588322463
 40
2.83808891614122
 40
2.83808891614122
 40
2.83808891614122
 40
2.83808891614122
 10
3034.075725108471
 20
1711.529477599615
 30
0.0
 10
3033.608109888702
 20
1711.636821112218
 30
0.0
 10
3032.685759535223
 20
1711.84855144649
 30
0.0
 10
3031.751136298008
 20
1711.99694261187
 30
0.0
 10
3031.29035041427
 20
1712.070102096415
 30
0.0
 11
3034.075725108471
 21
1711.529477599615
 31
0.0
 11
3032.66972493807
 21
1711.835228010015
 31
0.0
 11
3031.29035041427
 21
1712.070102096415
 31
0.0
  0
SPLINE
  5
1754
330
1B
100
AcDbEntity
  8
0
  6
Continuous
 62
     0
100
AcDbSpline
210
0.0
220
0.0
230
1.0
 70
     8
 71
     3
 72
    12
 73
     8
 74
     6
 42
0.0000000001
 43
0.0000000001
 44
0.0000000001
 40
0.0
 40
0.0
 40
0.0
 40
0.0
 40
0.5335618727406968
 40
1.064943014933999
 40
1.58492543068015
 40
2.087012599253602
 40
2.569316497498543
 40
2.569316497498543
 40
2.569316497498543
 40
2.569316497498543
 10
3032.62284496487
 20
1709.597625947015
 30
0.0
 10
3032.645811058431
 20
1709.774734072707
 30
0.0
 10
3032.691649380407
 20
1710.128226462213
 30
0.0
 10
3032.909181599183
 20
1710.618018955295
 30
0.0
 10
3033.220776692498
 20
1711.03477195168
 30
0.0
 10
3033.613143178664
 20
1711.362105719897
 30
0.0
 10
3033.923645040088
 20
1711.474439495601
 30
0.0
 10
3034.07577589867
 20
1711.529477599615
 30
0.0
 11
3032.62284496487
 21
1709.597625947015
 31
0.0
 11
3032.71692755047
 21
1710.122827564615
 31
0.0
 11
3032.92775517227
 21
1710.610595575215
 31
0.0
 11
3033.240300846471
 21
1711.026163757615
 31
0.0
 11
3033.632287521071
 21
1711.339912019415
 31
0.0
 11
3034.07577589867
 21
1711.529477599615
 31
0.0
  0
SPLINE
  5
1755
330
1B
100
AcDbEntity
  8
0
  6
Continuous
 62
     0
100
AcDbSpline
210
0.0
220
0.0
230
1.0
 70
     8
 71
     3
 72
    11
 73
     7
 74
     5
 42
0.0000000001
 43
0.0000000001
 44
0.0000000001
 40
0.0
 40
0.0
 40
0.0
 40
0.0
 40
1.731909568037619
 40
3.449237429478817
 40
5.177077550650639
 40
6.933210356709642
 40
6.933210356709642
 40
6.933210356709642
 40
6.933210356709642
 10
3029.91666869867
 20
1710.138250444015
 30
0.0
 10
3029.34388863213
 20
1710.212619754487
 30
0.0
 10
3028.203150985759
 20
1710.360732227572
 30
0.0
 10
3026.476382740842
 20
1710.421195822921
 30
0.0
 10
3024.74140609437
 20
1710.362814440106
 30
0.0
 10
3023.589125825511
 20
1710.213509269059
 30
0.0
 10
3023.00830696607
 20
1710.138250444015
 30
0.0
 11
3029.91666869867
 21
1710.138250444015
 31
0.0
 11
3028.19587668227
 21
1710.334172847415
 31
0.0
 11
3026.47986778787
 21
1710.401466666015
 31
0.0
 11
3024.753267304871
 21
1710.336027714015
 31
0.0
 11
3023.00830696607
 21
1710.138250444015
 31
0.0
  0
SPLINE
  5
1756
330
1B
100
AcDbEntity
  8
0
  6
Continuous
 62
     0
100
AcDbSpline
210
0.0
220
0.0
230
1.0
 70
     8
 71
     3
 72
    10
 73
     6
 74
     4
 42
0.0000000001
 43
0.0000000001
 44
0.0000000001
 40
0.0
 40
0.0
 40
0.0
 40
0.0
 40
0.9048196316623113
 40
1.824980312177329
 40
2.760540378415724
 40
2.760540378415724
 40
2.760540378415724
 40
2.760540378415724
 10
3023.00830696607
 20
1710.138250444015
 30
0.0
 10
3022.710470002281
 20
1710.0905851835
 30
0.0
 10
3022.109746304283
 20
1709.994446506829
 30
0.0
 10
3021.207368479608
 20
1709.812802781529
 30
0.0
 10
3020.605541346778
 20
1709.669747266543
 30
0.0
 10
3020.30213069987
 20
1709.597625948015
 30
0.0
 11
3023.00830696607
 21
1710.138250444015
 31
0.0
 11
3022.115820124871
 21
1709.989368597815
 31
0.0
 11
3021.21357735027
 21
1709.808665378014
 31
0.0
 11
3020.30213069987
 21
1709.597625948015
 31
0.0
  0
LINE
  5
1757
330
1B
100
AcDbEntity
  8
0
  6
Continuous
 62
     0
100
AcDbLine
 10
3120.00594325007
 20
1700.070102096415
 30
0.0
 11
3120.00594325007
 21
1709.597625947015
 31
0.0
  0
LINE
  5
1758
330
1B
100
AcDbEntity
  8
0
  6
Continuous
 62
     0
100
AcDbLine
 10
3122.80594325007
 20
1681.435787521415
 30
0.0
 11
3122.80594325007
 21
1690.170102096415
 31
0.0
  0
LINE
  5
1759
330
1B
100
AcDbEntity
  8
0
  6
Continuous
 62
     0
100
AcDbLine
 10
3124.505943250071
 20
1679.570102096415
 30
0.0
 11
3124.505943250071
 21
1691.870102096415
 31
0.0
  0
LINE
  5
175A
330
1B
100
AcDbEntity
  8
0
  6
Continuous
 62
     0
100
AcDbLine
 10
3125.30594325007
 20
1693.084315658815
 30
0.0
 11
3125.30594325007
 21
1699.070102096415
 31
0.0
  0
LINE
  5
175B
330
1B
100
AcDbEntity
  8
0
  6
Continuous
 62
     0
100
AcDbLine
 10
3132.62284496487
 20
1700.070102096415
 30
0.0
 11
3132.62284496487
 21
1709.597625947215
 31
0.0
  0
LINE
  5
175C
330
1B
100
AcDbEntity
  8
0
  6
Continuous
 62
     0
100
AcDbLine
 10
3136.48522898507
 20
1709.597625947215
 30
0.0
 11
3136.48522898507
 21
1700.070102096415
 31
0.0
  0
LINE
  5
175D
330
1B
100
AcDbEntity
  8
0
  6
Continuous
 62
     0
100
AcDbLine
 10
3136.48522898507
 20
1709.597625947015
 30
0.0
 11
3136.24725618647
 21
1711.529477599615
 31
0.0
  0
LINE
  5
175E
330
1B
100
AcDbEntity
  8
0
  6
Continuous
 62
     0
100
AcDbLine
 10
3161.126657515071
 20
1700.070102096415
 30
0.0
 11
3161.126657515071
 21
1709.597625947215
 31
0.0
  0
LINE
  5
175F
330
1B
100
AcDbEntity
  8
0
  6
Continuous
 62
     0
100
AcDbLine
 10
3164.98904153507
 20
1709.597625947215
 30
0.0
 11
3164.98904153507
 21
1700.070102096415
 31
0.0
  0
LINE
  5
1760
330
1B
100
AcDbEntity
  8
0
  6
Continuous
 62
     0
100
AcDbLine
 10
3172.30594325007
 20
1693.084315658815
 30
0.0
 11
3172.30594325007
 21
1699.070102096415
 31
0.0
  0
LINE
  5
1761
330
1B
100
AcDbEntity
  8
0
  6
Continuous
 62
     0
100
AcDbLine
 10
3173.105943250071
 20
1679.570102096415
 30
0.0
 11
3173.105943250071
 21
1691.870102096415
 31
0.0
  0
LINE
  5
1762
330
1B
100
AcDbEntity
  8
0
  6
Continuous
 62
     0
100
AcDbLine
 10
3174.80594325007
 20
1681.435787521415
 30
0.0
 11
3174.80594325007
 21
1690.170102096415
 31
0.0
  0
LINE
  5
1763
330
1B
100
AcDbEntity
  8
0
  6
Continuous
 62
     0
100
AcDbLine
 10
3177.60594325007
 20
1700.070102096415
 30
0.0
 11
3177.60594325007
 21
1709.597625947015
 31
0.0
  0
LINE
  5
1764
330
1B
100
AcDbEntity
  8
0
  6
Continuous
 62
     0
100
AcDbLine
 10
3161.126657515071
 20
1709.597625947015
 30
0.0
 11
3161.36463031367
 21
1711.529477599615
 31
0.0
  0
LINE
  5
1765
330
1B
100
AcDbEntity
  8
0
  6
Continuous
 62
     0
100
AcDbLine
 10
3124.88878596247
 20
1679.187259384015
 30
0.0
 11
3122.92310053747
 21
1681.152944809015
 31
0.0
  0
LINE
  5
1766
330
1B
100
AcDbEntity
  8
0
  6
Continuous
 62
     0
100
AcDbLine
 10
3174.80594325007
 20
1690.170102096415
 30
0.0
 11
3172.59883646887
 21
1692.377208877615
 31
0.0
  0
LINE
  5
1767
330
1B
100
AcDbEntity
  8
0
  6
Continuous
 62
     0
100
AcDbLine
 10
3122.80594325007
 20
1690.170102096415
 30
0.0
 11
3125.013050031271
 21
1692.377208877615
 31
0.0
  0
LINE
  5
1768
330
1B
100
AcDbEntity
  8
0
  6
Continuous
 62
     0
100
AcDbLine
 10
3172.72310053747
 20
1679.187259384015
 30
0.0
 11
3174.68878596247
 21
1681.152944809015
 31
0.0
  0
LINE
  5
1769
330
1B
100
AcDbEntity
  8
0
  6
Continuous
 62
     0
100
AcDbLine
 10
3176.123581340271
 20
1711.529477599615
 30
0.0
 11
3174.10594325007
 21
1712.070102096415
 31
0.0
  0
LINE
  5
176A
330
1B
100
AcDbEntity
  8
0
  6
Continuous
 62
     0
100
AcDbLine
 10
3172.44025782507
 20
1679.070102096414
 30
0.0
 11
3125.17162867487
 21
1679.070102096414
 31
0.0
  0
LINE
  5
176B
330
1B
100
AcDbEntity
  8
0
  6
Continuous
 62
     0
100
AcDbLine
 10
3124.505943250071
 20
1679.570102096415
 30
0.0
 11
3173.105943250071
 21
1679.570102096415
 31
0.0
  0
LINE
  5
176C
330
1B
100
AcDbEntity
  8
0
  6
Continuous
 62
     0
100
AcDbLine
 10
3174.68878596247
 20
1681.152944809015
 30
0.0
 11
3122.92310053747
 21
1681.152944809015
 31
0.0
  0
LINE
  5
176D
330
1B
100
AcDbEntity
  8
0
  6
Continuous
 62
     0
100
AcDbLine
 10
3122.80594325007
 20
1690.170102096415
 30
0.0
 11
3174.80594325007
 21
1690.170102096415
 31
0.0
  0
LINE
  5
176E
330
1B
100
AcDbEntity
  8
0
  6
Continuous
 62
     0
100
AcDbLine
 10
3124.505943250071
 20
1691.870102287214
 30
0.0
 11
3173.105943250071
 21
1691.870102287214
 31
0.0
  0
LINE
  5
176F
330
1B
100
AcDbEntity
  8
0
  6
Continuous
 62
     0
100
AcDbLine
 10
3125.30594325007
 20
1693.084315658815
 30
0.0
 11
3172.30594325007
 21
1693.084315658815
 31
0.0
  0
LINE
  5
1770
330
1B
100
AcDbEntity
  8
0
  6
Continuous
 62
     0
100
AcDbLine
 10
3125.30594325007
 20
1699.070102096415
 30
0.0
 11
3172.30594325007
 21
1699.070102096415
 31
0.0
  0
LINE
  5
1771
330
1B
100
AcDbEntity
  8
0
  6
Continuous
 62
     0
100
AcDbLine
 10
3120.00594518747
 20
1700.070102096415
 30
0.0
 11
3177.60594131247
 21
1700.070102096415
 31
0.0
  0
LINE
  5
1772
330
1B
100
AcDbEntity
  8
0
  6
Continuous
 62
     0
100
AcDbLine
 10
3177.60594325007
 20
1709.597625947015
 30
0.0
 11
3177.309755800071
 21
1709.597625947015
 31
0.0
  0
LINE
  5
1773
330
1B
100
AcDbEntity
  8
0
  6
Continuous
 62
     0
100
AcDbLine
 10
3164.98904153507
 20
1709.597625947015
 30
0.0
 11
3161.126657515071
 21
1709.597625947015
 31
0.0
  0
LINE
  5
1774
330
1B
100
AcDbEntity
  8
0
  6
Continuous
 62
     0
100
AcDbLine
 10
3136.48522898507
 20
1709.597625947015
 30
0.0
 11
3132.62284496487
 21
1709.597625947015
 31
0.0
  0
LINE
  5
1775
330
1B
100
AcDbEntity
  8
0
  6
Continuous
 62
     0
100
AcDbLine
 10
3120.302130699871
 20
1709.597625947015
 30
0.0
 11
3120.00594325007
 21
1709.597625947015
 31
0.0
  0
LINE
  5
1776
330
1B
100
AcDbEntity
  8
0
  6
Continuous
 62
     0
100
AcDbLine
 10
3176.123581340271
 20
1711.529477599615
 30
0.0
 11
3176.09479769807
 21
1711.529477599615
 31
0.0
  0
LINE
  5
1777
330
1B
100
AcDbEntity
  8
0
  6
Continuous
 62
     0
100
AcDbLine
 10
3163.53616279907
 20
1711.529477599615
 30
0.0
 11
3161.36459746427
 21
1711.529477599615
 31
0.0
  0
LINE
  5
1778
330
1B
100
AcDbEntity
  8
0
  6
Continuous
 62
     0
100
AcDbLine
 10
3136.24729119667
 20
1711.529477599615
 30
0.0
 11
3134.07572510847
 21
1711.529477599615
 31
0.0
  0
LINE
  5
1779
330
1B
100
AcDbEntity
  8
0
  6
Continuous
 62
     0
100
AcDbLine
 10
3121.51708880287
 20
1711.529477599615
 30
0.0
 11
3121.48830515987
 21
1711.529477599615
 31
0.0
  0
LINE
  5
177A
330
1B
100
AcDbEntity
  8
0
  6
Continuous
 62
     0
100
AcDbLine
 10
3121.48830515987
 20
1711.529477599615
 30
0.0
 11
3123.50594325007
 21
1712.070102096415
 31
0.0
  0
ARC
  5
177B
330
1B
100
AcDbEntity
  8
0
  6
Continuous
 62
     0
100
AcDbCircle
 10
3172.44025782507
 20
1679.470102096415
 30
0.0
 40
0.4
100
AcDbArc
 50
270.0000000000004
 51
314.9999999916998
  0
ARC
  5
177C
330
1B
100
AcDbEntity
  8
0
  6
Continuous
 62
     0
100
AcDbCircle
 10
3125.17162867487
 20
1679.470102096415
 30
0.0
 40
0.4
100
AcDbArc
 50
225.0000000064017
 51
270.0000000000004
  0
ARC
  5
177D
330
1B
100
AcDbEntity
  8
0
  6
Continuous
 62
     0
100
AcDbCircle
 10
3174.405943250071
 20
1681.435787521415
 30
0.0
 40
0.4
100
AcDbArc
 50
314.9999999997991
 51
0.0
  0
ARC
  5
177E
330
1B
100
AcDbEntity
  8
0
  6
Continuous
 62
     0
100
AcDbCircle
 10
3123.20594325007
 20
1681.435787521415
 30
0.0
 40
0.4
100
AcDbArc
 50
180.0
 51
225.0000000002018
  0
ARC
  5
177F
330
1B
100
AcDbEntity
  8
0
  6
Continuous
 62
     0
100
AcDbCircle
 10
3175.60594325007
 20
1709.597625947015
 30
0.0
 40
2.0
100
AcDbArc
 50
0.0
 51
75.00000000000044
  0
ARC
  5
1780
330
1B
100
AcDbEntity
  8
0
  6
Continuous
 62
     0
100
AcDbCircle
 10
3122.005943250071
 20
1709.597625947015
 30
0.0
 40
2.0
100
AcDbArc
 50
105.0
 51
180.0
  0
ARC
  5
1781
330
1B
100
AcDbEntity
  8
0
  6
Continuous
 62
     0
100
AcDbCircle
 10
3173.30594325007
 20
1699.070102096415
 30
0.0
 40
1.0
100
AcDbArc
 50
90.0
 51
180.0
  0
ARC
  5
1782
330
1B
100
AcDbEntity
  8
0
  6
Continuous
 62
     0
100
AcDbCircle
 10
3124.30594325007
 20
1699.070102096415
 30
0.0
 40
1.0
100
AcDbArc
 50
0.0
 51
90.0
  0
ARC
  5
1783
330
1B
100
AcDbEntity
  8
0
  6
Continuous
 62
     0
100
AcDbCircle
 10
3173.30594325007
 20
1693.084315658815
 30
0.0
 40
1.0
100
AcDbArc
 50
180.0
 51
225.0000000004992
  0
ARC
  5
1784
330
1B
100
AcDbEntity
  8
0
  6
Continuous
 62
     0
100
AcDbCircle
 10
3124.30594325007
 20
1693.084315658815
 30
0.0
 40
1.0
100
AcDbArc
 50
314.9999999994006
 51
0.0
  0
SPLINE
  5
1785
330
1B
100
AcDbEntity
  8
0
  6
Continuous
 62
     0
100
AcDbSpline
210
0.0
220
0.0
230
1.0
 70
     8
 71
     3
 72
    10
 73
     6
 74
     4
 42
0.0000000001
 43
0.0000000001
 44
0.0000000001
 40
0.0
 40
0.0
 40
0.0
 40
0.0
 40
0.9356392924644608
 40
1.855790929781357
 40
2.760540377482087
 40
2.760540377482087
 40
2.760540377482087
 40
2.760540377482087
 10
3177.309755800071
 20
1709.597625948015
 30
0.0
 10
3177.00631940913
 20
1709.669753181815
 30
0.0
 10
3176.404469415648
 20
1709.812813725929
 30
0.0
 10
3175.502091094769
 20
1709.994454965951
 30
0.0
 10
3174.901393422033
 20
1710.090589075719
 30
0.0
 10
3174.60357953387
 20
1710.138250444015
 30
0.0
 11
3177.309755800071
 21
1709.597625948015
 31
0.0
 11
3176.39823169827
 21
1709.808682095615
 31
0.0
 11
3175.495997330071
 21
1709.989381239214
 31
0.0
 11
3174.60357953387
 21
1710.138250444015
 31
0.0
  0
SPLINE
  5
1786
330
1B
100
AcDbEntity
  8
0
  6
Continuous
 62
     0
100
AcDbSpline
210
0.0
220
0.0
230
1.0
 70
     8
 71
     3
 72
    11
 73
     7
 74
     5
 42
0.0000000001
 43
0.0000000001
 44
0.0000000001
 40
0.0
 40
0.0
 40
0.0
 40
0.0
 40
1.756137102780883
 40
3.483978265282173
 40
5.201326719776939
 40
6.933210354502324
 40
6.933210354502324
 40
6.933210354502324
 40
6.933210354502324
 10
3174.60357953387
 20
1710.138250444015
 30
0.0
 10
3174.022759248514
 20
1710.213509428924
 30
0.0
 10
3172.870477204587
 20
1710.362814780584
 30
0.0
 10
3171.135491892662
 20
1710.421196078882
 30
0.0
 10
3169.408725086214
 20
1710.360731301663
 30
0.0
 10
3168.267989262648
 20
1710.212618780282
 30
0.0
 10
3167.69521780127
 20
1710.138250444015
 30
0.0
 11
3174.60357953387
 21
1710.138250444015
 31
0.0
 11
3172.85861490867
 21
1710.336028047815
 31
0.0
 11
3171.13201337067
 21
1710.401466658815
 31
0.0
 11
3169.41598394607
 21
1710.334170833815
 31
0.0
 11
3167.69521780127
 21
1710.138250444015
 31
0.0
  0
SPLINE
  5
1787
330
1B
100
AcDbEntity
  8
0
  6
Continuous
 62
     0
100
AcDbSpline
210
0.0
220
0.0
230
1.0
 70
     8
 71
     3
 72
     9
 73
     5
 74
     3
 42
0.0000000001
 43
0.0000000001
 44
0.0000000001
 40
0.0
 40
0.0
 40
0.0
 40
0.0
 40
1.361977045386292
 40
2.760401168772483
 40
2.760401168772483
 40
2.760401168772483
 40
2.760401168772483
 10
3167.69521780127
 20
1710.138250444015
 30
0.0
 10
3167.247021152492
 20
1710.064991095492
 30
0.0
 10
3166.338633924293
 20
1709.916511947497
 30
0.0
 10
3165.442848180274
 20
1709.704852830788
 30
0.0
 10
3164.98904153507
 20
1709.597625947215
 30
0.0
 11
3167.69521780127
 21
1710.138250444015
 31
0.0
 11
3166.35369558307
 21
1709.903091752414
 31
0.0
 11
3164.98904153507
 21
1709.597625947215
 31
0.0
  0
SPLINE
  5
1788
330
1B
100
AcDbEntity
  8
0
  6
Continuous
 62
     0
100
AcDbSpline
210
0.0
220
0.0
230
1.0
 70
     8
 71
     3
 72
    12
 73
     8
 74
     6
 42
0.0000000001
 43
0.0000000001
 44
0.0000000001
 40
0.0
 40
0.0
 40
0.0
 40
0.0
 40
0.533390830264023
 40
1.065066568491357
 40
1.585400896368036
 40
2.087704153359405
 40
2.569317245969053
 40
2.569317245969053
 40
2.569317245969053
 40
2.569317245969053
 10
3164.98904153507
 20
1709.597625947015
 30
0.0
 10
3164.966086056793
 20
1709.774677122778
 30
0.0
 10
3164.920248912452
 20
1710.128210174937
 30
0.0
 10
3164.702653770131
 20
1710.618157082124
 30
0.0
 10
3164.390825928196
 20
1711.035105903964
 30
0.0
 10
3163.998386484502
 20
1711.362294837167
 30
0.0
 10
3163.68802711113
 20
1711.474536767357
 30
0.0
 10
3163.53611060147
 20
1711.529477599615
 30
0.0
 11
3164.98904153507
 21
1709.597625947015
 31
0.0
 11
3164.89500862307
 21
1710.122662697415
 31
0.0
 11
3164.684068959071
 21
1710.610703217015
 31
0.0
 11
3164.37125281967
 21
1711.026508310415
 31
0.0
 11
3163.979001379471
 21
1711.340271548615
 31
0.0
 11
3163.53611060147
 21
1711.529477599615
 31
0.0
  0
SPLINE
  5
1789
330
1B
100
AcDbEntity
  8
0
  6
Continuous
 62
     0
100
AcDbSpline
210
0.0
220
0.0
230
1.0
 70
     8
 71
     3
 72
     9
 73
     5
 74
     3
 42
0.0000000001
 43
0.0000000001
 44
0.0000000001
 40
0.0
 40
0.0
 40
0.0
 40
0.0
 40
1.399291230401882
 40
2.838087538586916
 40
2.838087538586916
 40
2.838087538586916
 40
2.838087538586916
 10
3166.32153608567
 20
1712.070102096415
 30
0.0
 10
3165.860729516426
 20
1711.996939082818
 30
0.0
 10
3164.926106792108
 20
1711.848547502376
 30
0.0
 10
3164.003757046989
 20
1711.636816637707
 30
0.0
 10
3163.53616279907
 20
1711.529477599615
 30
0.0
 11
3166.32153608567
 21
1712.070102096415
 31
0.0
 11
3164.942099799671
 21
1711.835215995615
 31
0.0
 11
3163.53616279907
 21
1711.529477599615
 31
0.0
  0
SPLINE
  5
178A
330
1B
100
AcDbEntity
  8
0
  6
Continuous
 62
     0
100
AcDbSpline
210
0.0
220
0.0
230
1.0
 70
     8
 71
     3
 72
     9
 73
     5
 74
     3
 42
0.0000000001
 43
0.0000000001
 44
0.0000000001
 40
0.0
 40
0.0
 40
0.0
 40
0.0
 40
2.743933187974597
 40
5.439678939620081
 40
5.439678939620081
 40
5.439678939620081
 40
5.439678939620081
 10
3161.126657515071
 20
1709.597625947215
 30
0.0
 10
3160.218239860134
 20
1709.704884206237
 30
0.0
 10
3158.417357678457
 20
1709.917517114086
 30
0.0
 10
3156.609985675157
 20
1710.065108480444
 30
0.0
 10
3155.714304982671
 20
1710.138250444015
 30
0.0
 11
3161.126657515071
 21
1709.597625947215
 31
0.0
 11
3158.39975322247
 21
1709.902850977415
 31
0.0
 11
3155.714304982671
 21
1710.138250444015
 31
0.0
  0
SPLINE
  5
178B
330
1B
100
AcDbEntity
  8
0
  6
Continuous
 62
     0
100
AcDbSpline
210
0.0
220
0.0
230
1.0
 70
     8
 71
     3
 72
     9
 73
     5
 74
     3
 42
0.0000000001
 43
0.0000000001
 44
0.0000000001
 40
0.0
 40
0.0
 40
0.0
 40
0.0
 40
2.790847009492518
 40
5.532865527555573
 40
5.532865527555573
 40
5.532865527555573
 40
5.532865527555573
 10
3161.36459746427
 20
1711.529477599615
 30
0.0
 10
3160.440451068308
 20
1711.636873286978
 30
0.0
 10
3158.608327086146
 20
1711.849785673216
 30
0.0
 10
3156.769768773616
 20
1711.997096636892
 30
0.0
 10
3155.85860241427
 20
1712.070102096415
 30
0.0
 11
3161.36459746427
 21
1711.529477599615
 31
0.0
 11
3158.590521176471
 21
1711.834973556815
 31
0.0
 11
3155.85860241427
 21
1712.070102096415
 31
0.0
  0
SPLINE
  5
178C
330
1B
100
AcDbEntity
  8
0
  6
Continuous
 62
     0
100
AcDbSpline
210
0.0
220
0.0
230
1.0
 70
     8
 71
     3
 72
    11
 73
     7
 74
     5
 42
0.0000000001
 43
0.0000000001
 44
0.0000000001
 40
0.0
 40
0.0
 40
0.0
 40
0.0
 40
3.47350636871925
 40
6.914580222652016
 40
10.35565725050671
 40
13.8291751147245
 40
13.8291751147245
 40
13.8291751147245
 40
13.8291751147245
 10
3155.714304982671
 20
1710.138250444015
 30
0.0
 10
3154.558745794353
 20
1710.213129902781
 30
0.0
 10
3152.258417002214
 20
1710.362189662488
 30
0.0
 10
3148.805949530105
 20
1710.421023200699
 30
0.0
 10
3145.353478212357
 20
1710.362190118228
 30
0.0
 10
3143.05314453341
 20
1710.213130114378
 30
0.0
 10
3141.897581517471
 20
1710.138250444015
 30
0.0
 11
3155.714304982671
 21
1710.138250444015
 31
0.0
 11
3152.24638592687
 21
1710.335186768614
 31
0.0
 11
3148.80595058607
 21
1710.401473524415
 31
0.0
 11
3145.36551206227
 21
1710.335187209215
 31
0.0
 11
3141.897581517471
 21
1710.138250444015
 31
0.0
  0
SPLINE
  5
178D
330
1B
100
AcDbEntity
  8
0
  6
Continuous
 62
     0
100
AcDbSpline
210
0.0
220
0.0
230
1.0
 70
     8
 71
     3
 72
     9
 73
     5
 74
     3
 42
0.0000000001
 43
0.0000000001
 44
0.0000000001
 40
0.0
 40
0.0
 40
0.0
 40
0.0
 40
2.695780945439068
 40
5.439678939338962
 40
5.439678939338962
 40
5.439678939338962
 40
5.439678939338962
 10
3141.897581517471
 20
1710.138250444015
 30
0.0
 10
3141.001889136735
 20
1710.065107448137
 30
0.0
 10
3139.194517143898
 20
1709.917515925573
 30
0.0
 10
3137.393634979729
 20
1709.704882893297
 30
0.0
 10
3136.48522898507
 20
1709.597625947215
 30
0.0
 11
3141.897581517471
 21
1710.138250444015
 31
0.0
 11
3139.21209825627
 21
1709.902847471215
 31
0.0
 11
3136.48522898507
 21
1709.597625947215
 31
0.0
  0
SPLINE
  5
178E
330
1B
100
AcDbEntity
  8
0
  6
Continuous
 62
     0
100
AcDbSpline
210
0.0
220
0.0
230
1.0
 70
     8
 71
     3
 72
     9
 73
     5
 74
     3
 42
0.0000000001
 43
0.0000000001
 44
0.0000000001
 40
0.0
 40
0.0
 40
0.0
 40
0.0
 40
2.742055125415179
 40
5.53286337943142
 40
5.53286337943142
 40
5.53286337943142
 40
5.53286337943142
 10
3141.753284085871
 20
1712.070102096415
 30
0.0
 10
3140.842105564911
 20
1711.9970956031
 30
0.0
 10
3139.003547972094
 20
1711.849784577301
 30
0.0
 10
3137.171424739869
 20
1711.636871955917
 30
0.0
 10
3136.24729119667
 20
1711.529477599615
 30
0.0
 11
3141.753284085871
 21
1712.070102096415
 31
0.0
 11
3139.021328889671
 21
1711.834969970215
 31
0.0
 11
3136.24729119667
 21
1711.529477599615
 31
0.0
  0
SPLINE
  5
178F
330
1B
100
AcDbEntity
  8
0
  6
Continuous
 62
     0
100
AcDbSpline
210
0.0
220
0.0
230
1.0
 70
     8
 71
     3
 72
     9
 73
     5
 74
     3
 42
0.0000000001
 43
0.0000000001
 44
0.0000000001
 40
0.0
 40
0.0
 40
0.0
 40
0.0
 40
1.398484515512786
 40
2.760401170974951
 40
2.760401170974951
 40
2.760401170974951
 40
2.760401170974951
 10
3132.62284496487
 20
1709.597625947215
 30
0.0
 10
3132.169018665656
 20
1709.704857263773
 30
0.0
 10
3131.273232810414
 20
1709.916515990421
 30
0.0
 10
3130.364845509817
 20
1710.064994606364
 30
0.0
 10
3129.91666869867
 20
1710.138250444015
 30
0.0
 11
3132.62284496487
 21
1709.597625947215
 31
0.0
 11
3131.25813168547
 21
1709.903103614414
 31
0.0
 11
3129.91666869867
 21
1710.138250444015
 31
0.0
  0
SPLINE
  5
1790
330
1B
100
AcDbEntity
  8
0
  6
Continuous
 62
     0
100
AcDbSpline
210
0.0
220
0.0
230
1.0
 70
     8
 71
     3
 72
     9
 73
     5
 74
     3
 42
0.0000000001
 43
0.0000000001
 44
0.0000000001
 40
0.0
 40
0.0
 40
0.0
 40
0.0
 40
1.438860588321574
 40
2.838088916140332
 40
2.838088916140332
 40
2.838088916140332
 40
2.838088916140332
 10
3134.07572510847
 20
1711.529477599615
 30
0.0
 10
3133.608109888702
 20
1711.636821112218
 30
0.0
 10
3132.685759535222
 20
1711.84855144649
 30
0.0
 10
3131.751136298007
 20
1711.99694261187
 30
0.0
 10
3131.29035041427
 20
1712.070102096415
 30
0.0
 11
3134.07572510847
 21
1711.529477599615
 31
0.0
 11
3132.66972493807
 21
1711.835228010015
 31
0.0
 11
3131.29035041427
 21
1712.070102096415
 31
0.0
  0
SPLINE
  5
1791
330
1B
100
AcDbEntity
  8
0
  6
Continuous
 62
     0
100
AcDbSpline
210
0.0
220
0.0
230
1.0
 70
     8
 71
     3
 72
    12
 73
     8
 74
     6
 42
0.0000000001
 43
0.0000000001
 44
0.0000000001
 40
0.0
 40
0.0
 40
0.0
 40
0.0
 40
0.5335618727406968
 40
1.064943014933999
 40
1.58492543067933
 40
2.087012599253137
 40
2.569316497498914
 40
2.569316497498914
 40
2.569316497498914
 40
2.569316497498914
 10
3132.62284496487
 20
1709.597625947015
 30
0.0
 10
3132.645811058431
 20
1709.774734072707
 30
0.0
 10
3132.691649380407
 20
1710.128226462213
 30
0.0
 10
3132.909181599183
 20
1710.618018955295
 30
0.0
 10
3133.220776692496
 20
1711.034771951681
 30
0.0
 10
3133.613143178664
 20
1711.362105719898
 30
0.0
 10
3133.923645040087
 20
1711.474439495601
 30
0.0
 10
3134.07577589867
 20
1711.529477599615
 30
0.0
 11
3132.62284496487
 21
1709.597625947015
 31
0.0
 11
3132.71692755047
 21
1710.122827564615
 31
0.0
 11
3132.92775517227
 21
1710.610595575215
 31
0.0
 11
3133.24030084647
 21
1711.026163757615
 31
0.0
 11
3133.63228752107
 21
1711.339912019415
 31
0.0
 11
3134.07577589867
 21
1711.529477599615
 31
0.0
  0
SPLINE
  5
1792
330
1B
100
AcDbEntity
  8
0
  6
Continuous
 62
     0
100
AcDbSpline
210
0.0
220
0.0
230
1.0
 70
     8
 71
     3
 72
    11
 73
     7
 74
     5
 42
0.0000000001
 43
0.0000000001
 44
0.0000000001
 40
0.0
 40
0.0
 40
0.0
 40
0.0
 40
1.731909568036715
 40
3.449237429477458
 40
5.177077550650644
 40
6.933210356709648
 40
6.933210356709648
 40
6.933210356709648
 40
6.933210356709648
 10
3129.91666869867
 20
1710.138250444015
 30
0.0
 10
3129.34388863213
 20
1710.212619754487
 30
0.0
 10
3128.203150985761
 20
1710.360732227572
 30
0.0
 10
3126.476382740842
 20
1710.421195822921
 30
0.0
 10
3124.74140609437
 20
1710.362814440106
 30
0.0
 10
3123.589125825511
 20
1710.213509269059
 30
0.0
 10
3123.00830696607
 20
1710.138250444015
 30
0.0
 11
3129.91666869867
 21
1710.138250444015
 31
0.0
 11
3128.195876682271
 21
1710.334172847415
 31
0.0
 11
3126.479867787871
 21
1710.401466666015
 31
0.0
 11
3124.753267304871
 21
1710.336027714015
 31
0.0
 11
3123.00830696607
 21
1710.138250444015
 31
0.0
  0
SPLINE
  5
1793
330
1B
100
AcDbEntity
  8
0
  6
Continuous
 62
     0
100
AcDbSpline
210
0.0
220
0.0
230
1.0
 70
     8
 71
     3
 72
    10
 73
     6
 74
     4
 42
0.0000000001
 43
0.0000000001
 44
0.0000000001
 40
0.0
 40
0.0
 40
0.0
 40
0.0
 40
0.9048196316623113
 40
1.824980312177329
 40
2.760540378414395
 40
2.760540378414395
 40
2.760540378414395
 40
2.760540378414395
 10
3123.00830696607
 20
1710.138250444015
 30
0.0
 10
3122.710470002281
 20
1710.0905851835
 30
0.0
 10
3122.109746304283
 20
1709.994446506829
 30
0.0
 10
3121.207368479609
 20
1709.812802781529
 30
0.0
 10
3120.605541346779
 20
1709.669747266543
 30
0.0
 10
3120.302130699871
 20
1709.597625948015
 30
0.0
 11
3123.00830696607
 21
1710.138250444015
 31
0.0
 11
3122.115820124871
 21
1709.989368597815
 31
0.0
 11
3121.21357735027
 21
1709.808665378014
 31
0.0
 11
3120.302130699871
 21
1709.597625948015
 31
0.0
  0
LINE
  5
1794
330
1B
100
AcDbEntity
  8
0
  6
Continuous
 62
     0
100
AcDbLine
 10
3220.00594325007
 20
1700.070102096415
 30
0.0
 11
3220.00594325007
 21
1709.597625947015
 31
0.0
  0
LINE
  5
1795
330
1B
100
AcDbEntity
  8
0
  6
Continuous
 62
     0
100
AcDbLine
 10
3222.805943250071
 20
1681.435787521415
 30
0.0
 11
3222.805943250071
 21
1690.170102096415
 31
0.0
  0
LINE
  5
1796
330
1B
100
AcDbEntity
  8
0
  6
Continuous
 62
     0
100
AcDbLine
 10
3224.505943250071
 20
1679.570102096415
 30
0.0
 11
3224.505943250071
 21
1691.870102096415
 31
0.0
  0
LINE
  5
1797
330
1B
100
AcDbEntity
  8
0
  6
Continuous
 62
     0
100
AcDbLine
 10
3225.305943250071
 20
1693.084315658815
 30
0.0
 11
3225.305943250071
 21
1699.070102096415
 31
0.0
  0
LINE
  5
1798
330
1B
100
AcDbEntity
  8
0
  6
Continuous
 62
     0
100
AcDbLine
 10
3232.622844964871
 20
1700.070102096415
 30
0.0
 11
3232.622844964871
 21
1709.597625947215
 31
0.0
  0
LINE
  5
1799
330
1B
100
AcDbEntity
  8
0
  6
Continuous
 62
     0
100
AcDbLine
 10
3236.48522898507
 20
1709.597625947215
 30
0.0
 11
3236.48522898507
 21
1700.070102096415
 31
0.0
  0
LINE
  5
179A
330
1B
100
AcDbEntity
  8
0
  6
Continuous
 62
     0
100
AcDbLine
 10
3236.48522898507
 20
1709.597625947015
 30
0.0
 11
3236.24725618647
 21
1711.529477599615
 31
0.0
  0
LINE
  5
179B
330
1B
100
AcDbEntity
  8
0
  6
Continuous
 62
     0
100
AcDbLine
 10
3261.12665751507
 20
1700.070102096415
 30
0.0
 11
3261.12665751507
 21
1709.597625947215
 31
0.0
  0
LINE
  5
179C
330
1B
100
AcDbEntity
  8
0
  6
Continuous
 62
     0
100
AcDbLine
 10
3264.98904153507
 20
1709.597625947215
 30
0.0
 11
3264.98904153507
 21
1700.070102096415
 31
0.0
  0
LINE
  5
179D
330
1B
100
AcDbEntity
  8
0
  6
Continuous
 62
     0
100
AcDbLine
 10
3272.30594325007
 20
1693.084315658815
 30
0.0
 11
3272.30594325007
 21
1699.070102096415
 31
0.0
  0
LINE
  5
179E
330
1B
100
AcDbEntity
  8
0
  6
Continuous
 62
     0
100
AcDbLine
 10
3273.10594325007
 20
1679.570102096415
 30
0.0
 11
3273.10594325007
 21
1691.870102096415
 31
0.0
  0
LINE
  5
179F
330
1B
100
AcDbEntity
  8
0
  6
Continuous
 62
     0
100
AcDbLine
 10
3274.805943250071
 20
1681.435787521415
 30
0.0
 11
3274.805943250071
 21
1690.170102096415
 31
0.0
  0
LINE
  5
17A0
330
1B
100
AcDbEntity
  8
0
  6
Continuous
 62
     0
100
AcDbLine
 10
3277.60594325007
 20
1700.070102096415
 30
0.0
 11
3277.60594325007
 21
1709.597625947015
 31
0.0
  0
LINE
  5
17A1
330
1B
100
AcDbEntity
  8
0
  6
Continuous
 62
     0
100
AcDbLine
 10
3261.12665751507
 20
1709.597625947015
 30
0.0
 11
3261.36463031367
 21
1711.529477599615
 31
0.0
  0
LINE
  5
17A2
330
1B
100
AcDbEntity
  8
0
  6
Continuous
 62
     0
100
AcDbLine
 10
3224.88878596247
 20
1679.187259384015
 30
0.0
 11
3222.923100537471
 21
1681.152944809015
 31
0.0
  0
LINE
  5
17A3
330
1B
100
AcDbEntity
  8
0
  6
Continuous
 62
     0
100
AcDbLine
 10
3274.805943250071
 20
1690.170102096415
 30
0.0
 11
3272.59883646887
 21
1692.377208877615
 31
0.0
  0
LINE
  5
17A4
330
1B
100
AcDbEntity
  8
0
  6
Continuous
 62
     0
100
AcDbLine
 10
3222.805943250071
 20
1690.170102096415
 30
0.0
 11
3225.01305003127
 21
1692.377208877615
 31
0.0
  0
LINE
  5
17A5
330
1B
100
AcDbEntity
  8
0
  6
Continuous
 62
     0
100
AcDbLine
 10
3272.723100537471
 20
1679.187259384015
 30
0.0
 11
3274.688785962471
 21
1681.152944809015
 31
0.0
  0
LINE
  5
17A6
330
1B
100
AcDbEntity
  8
0
  6
Continuous
 62
     0
100
AcDbLine
 10
3276.123581340271
 20
1711.529477599615
 30
0.0
 11
3274.10594325007
 21
1712.070102096415
 31
0.0
  0
LINE
  5
17A7
330
1B
100
AcDbEntity
  8
0
  6
Continuous
 62
     0
100
AcDbLine
 10
3272.440257825071
 20
1679.070102096415
 30
0.0
 11
3225.17162867487
 21
1679.070102096415
 31
0.0
  0
LINE
  5
17A8
330
1B
100
AcDbEntity
  8
0
  6
Continuous
 62
     0
100
AcDbLine
 10
3224.505943250071
 20
1679.570102096415
 30
0.0
 11
3273.10594325007
 21
1679.570102096415
 31
0.0
  0
LINE
  5
17A9
330
1B
100
AcDbEntity
  8
0
  6
Continuous
 62
     0
100
AcDbLine
 10
3274.688785962471
 20
1681.152944809015
 30
0.0
 11
3222.923100537471
 21
1681.152944809015
 31
0.0
  0
LINE
  5
17AA
330
1B
100
AcDbEntity
  8
0
  6
Continuous
 62
     0
100
AcDbLine
 10
3222.805943250071
 20
1690.170102096415
 30
0.0
 11
3274.805943250071
 21
1690.170102096415
 31
0.0
  0
LINE
  5
17AB
330
1B
100
AcDbEntity
  8
0
  6
Continuous
 62
     0
100
AcDbLine
 10
3224.505943250071
 20
1691.870102287215
 30
0.0
 11
3273.10594325007
 21
1691.870102287215
 31
0.0
  0
LINE
  5
17AC
330
1B
100
AcDbEntity
  8
0
  6
Continuous
 62
     0
100
AcDbLine
 10
3225.305943250071
 20
1693.084315658815
 30
0.0
 11
3272.30594325007
 21
1693.084315658815
 31
0.0
  0
LINE
  5
17AD
330
1B
100
AcDbEntity
  8
0
  6
Continuous
 62
     0
100
AcDbLine
 10
3225.305943250071
 20
1699.070102096415
 30
0.0
 11
3272.30594325007
 21
1699.070102096415
 31
0.0
  0
LINE
  5
17AE
330
1B
100
AcDbEntity
  8
0
  6
Continuous
 62
     0
100
AcDbLine
 10
3220.005945187471
 20
1700.070102096415
 30
0.0
 11
3277.605941312471
 21
1700.070102096415
 31
0.0
  0
LINE
  5
17AF
330
1B
100
AcDbEntity
  8
0
  6
Continuous
 62
     0
100
AcDbLine
 10
3277.60594325007
 20
1709.597625947015
 30
0.0
 11
3277.309755800071
 21
1709.597625947015
 31
0.0
  0
LINE
  5
17B0
330
1B
100
AcDbEntity
  8
0
  6
Continuous
 62
     0
100
AcDbLine
 10
3264.98904153507
 20
1709.597625947015
 30
0.0
 11
3261.12665751507
 21
1709.597625947015
 31
0.0
  0
LINE
  5
17B1
330
1B
100
AcDbEntity
  8
0
  6
Continuous
 62
     0
100
AcDbLine
 10
3236.48522898507
 20
1709.597625947015
 30
0.0
 11
3232.622844964871
 21
1709.597625947015
 31
0.0
  0
LINE
  5
17B2
330
1B
100
AcDbEntity
  8
0
  6
Continuous
 62
     0
100
AcDbLine
 10
3220.302130699871
 20
1709.597625947015
 30
0.0
 11
3220.00594325007
 21
1709.597625947015
 31
0.0
  0
LINE
  5
17B3
330
1B
100
AcDbEntity
  8
0
  6
Continuous
 62
     0
100
AcDbLine
 10
3276.123581340271
 20
1711.529477599615
 30
0.0
 11
3276.09479769807
 21
1711.529477599615
 31
0.0
  0
LINE
  5
17B4
330
1B
100
AcDbEntity
  8
0
  6
Continuous
 62
     0
100
AcDbLine
 10
3263.53616279907
 20
1711.529477599615
 30
0.0
 11
3261.36459746427
 21
1711.529477599615
 31
0.0
  0
LINE
  5
17B5
330
1B
100
AcDbEntity
  8
0
  6
Continuous
 62
     0
100
AcDbLine
 10
3236.247291196671
 20
1711.529477599615
 30
0.0
 11
3234.07572510847
 21
1711.529477599615
 31
0.0
  0
LINE
  5
17B6
330
1B
100
AcDbEntity
  8
0
  6
Continuous
 62
     0
100
AcDbLine
 10
3221.51708880287
 20
1711.529477599615
 30
0.0
 11
3221.488305159871
 21
1711.529477599615
 31
0.0
  0
LINE
  5
17B7
330
1B
100
AcDbEntity
  8
0
  6
Continuous
 62
     0
100
AcDbLine
 10
3221.488305159871
 20
1711.529477599615
 30
0.0
 11
3223.505943250071
 21
1712.070102096415
 31
0.0
  0
ARC
  5
17B8
330
1B
100
AcDbEntity
  8
0
  6
Continuous
 62
     0
100
AcDbCircle
 10
3272.440257825071
 20
1679.470102096415
 30
0.0
 40
0.4
100
AcDbArc
 50
270.0000000000004
 51
314.9999999916998
  0
ARC
  5
17B9
330
1B
100
AcDbEntity
  8
0
  6
Continuous
 62
     0
100
AcDbCircle
 10
3225.17162867487
 20
1679.470102096415
 30
0.0
 40
0.4
100
AcDbArc
 50
225.0000000064017
 51
270.0000000000004
  0
ARC
  5
17BA
330
1B
100
AcDbEntity
  8
0
  6
Continuous
 62
     0
100
AcDbCircle
 10
3274.405943250071
 20
1681.435787521415
 30
0.0
 40
0.4
100
AcDbArc
 50
314.9999999997991
 51
0.0
  0
ARC
  5
17BB
330
1B
100
AcDbEntity
  8
0
  6
Continuous
 62
     0
100
AcDbCircle
 10
3223.20594325007
 20
1681.435787521415
 30
0.0
 40
0.4
100
AcDbArc
 50
180.0
 51
225.0000000002018
  0
ARC
  5
17BC
330
1B
100
AcDbEntity
  8
0
  6
Continuous
 62
     0
100
AcDbCircle
 10
3275.60594325007
 20
1709.597625947015
 30
0.0
 40
2.0
100
AcDbArc
 50
0.0
 51
75.00000000000044
  0
ARC
  5
17BD
330
1B
100
AcDbEntity
  8
0
  6
Continuous
 62
     0
100
AcDbCircle
 10
3222.005943250071
 20
1709.597625947015
 30
0.0
 40
2.0
100
AcDbArc
 50
105.0
 51
180.0
  0
ARC
  5
17BE
330
1B
100
AcDbEntity
  8
0
  6
Continuous
 62
     0
100
AcDbCircle
 10
3273.305943250071
 20
1699.070102096415
 30
0.0
 40
1.0
100
AcDbArc
 50
90.0
 51
180.0
  0
ARC
  5
17BF
330
1B
100
AcDbEntity
  8
0
  6
Continuous
 62
     0
100
AcDbCircle
 10
3224.305943250071
 20
1699.070102096415
 30
0.0
 40
1.0
100
AcDbArc
 50
0.0
 51
90.0
  0
ARC
  5
17C0
330
1B
100
AcDbEntity
  8
0
  6
Continuous
 62
     0
100
AcDbCircle
 10
3273.305943250071
 20
1693.084315658815
 30
0.0
 40
1.0
100
AcDbArc
 50
180.0
 51
225.0000000004992
  0
ARC
  5
17C1
330
1B
100
AcDbEntity
  8
0
  6
Continuous
 62
     0
100
AcDbCircle
 10
3224.305943250071
 20
1693.084315658815
 30
0.0
 40
1.0
100
AcDbArc
 50
314.9999999994006
 51
0.0
  0
SPLINE
  5
17C2
330
1B
100
AcDbEntity
  8
0
  6
Continuous
 62
     0
100
AcDbSpline
210
0.0
220
0.0
230
1.0
 70
     8
 71
     3
 72
    10
 73
     6
 74
     4
 42
0.0000000001
 43
0.0000000001
 44
0.0000000001
 40
0.0
 40
0.0
 40
0.0
 40
0.0
 40
0.9356392924635746
 40
1.855790929782433
 40
2.76054037748077
 40
2.76054037748077
 40
2.76054037748077
 40
2.76054037748077
 10
3277.309755800071
 20
1709.597625948015
 30
0.0
 10
3277.006319409131
 20
1709.669753181814
 30
0.0
 10
3276.404469415647
 20
1709.812813725929
 30
0.0
 10
3275.50209109477
 20
1709.994454965952
 30
0.0
 10
3274.901393422034
 20
1710.090589075719
 30
0.0
 10
3274.603579533871
 20
1710.138250444015
 30
0.0
 11
3277.309755800071
 21
1709.597625948015
 31
0.0
 11
3276.398231698271
 21
1709.808682095615
 31
0.0
 11
3275.49599733007
 21
1709.989381239215
 31
0.0
 11
3274.603579533871
 21
1710.138250444015
 31
0.0
  0
SPLINE
  5
17C3
330
1B
100
AcDbEntity
  8
0
  6
Continuous
 62
     0
100
AcDbSpline
210
0.0
220
0.0
230
1.0
 70
     8
 71
     3
 72
    11
 73
     7
 74
     5
 42
0.0000000001
 43
0.0000000001
 44
0.0000000001
 40
0.0
 40
0.0
 40
0.0
 40
0.0
 40
1.756137102782239
 40
3.48397826528262
 40
5.201326719778296
 40
6.933210354502325
 40
6.933210354502325
 40
6.933210354502325
 40
6.933210354502325
 10
3274.603579533871
 20
1710.138250444015
 30
0.0
 10
3274.022759248516
 20
1710.213509428925
 30
0.0
 10
3272.870477204587
 20
1710.362814780583
 30
0.0
 10
3271.13549189266
 20
1710.421196078881
 30
0.0
 10
3269.408725086216
 20
1710.360731301664
 30
0.0
 10
3268.26798926265
 20
1710.212618780283
 30
0.0
 10
3267.695217801271
 20
1710.138250444015
 30
0.0
 11
3274.603579533871
 21
1710.138250444015
 31
0.0
 11
3272.85861490867
 21
1710.336028047815
 31
0.0
 11
3271.132013370671
 21
1710.401466658815
 31
0.0
 11
3269.41598394607
 21
1710.334170833815
 31
0.0
 11
3267.695217801271
 21
1710.138250444015
 31
0.0
  0
SPLINE
  5
17C4
330
1B
100
AcDbEntity
  8
0
  6
Continuous
 62
     0
100
AcDbSpline
210
0.0
220
0.0
230
1.0
 70
     8
 71
     3
 72
     9
 73
     5
 74
     3
 42
0.0000000001
 43
0.0000000001
 44
0.0000000001
 40
0.0
 40
0.0
 40
0.0
 40
0.0
 40
1.36197704538744
 40
2.760401168773879
 40
2.760401168773879
 40
2.760401168773879
 40
2.760401168773879
 10
3267.695217801271
 20
1710.138250444015
 30
0.0
 10
3267.247021152492
 20
1710.064991095492
 30
0.0
 10
3266.338633924294
 20
1709.916511947499
 30
0.0
 10
3265.442848180275
 20
1709.704852830789
 30
0.0
 10
3264.98904153507
 20
1709.597625947215
 30
0.0
 11
3267.695217801271
 21
1710.138250444015
 31
0.0
 11
3266.35369558307
 21
1709.903091752415
 31
0.0
 11
3264.98904153507
 21
1709.597625947215
 31
0.0
  0
SPLINE
  5
17C5
330
1B
100
AcDbEntity
  8
0
  6
Continuous
 62
     0
100
AcDbSpline
210
0.0
220
0.0
230
1.0
 70
     8
 71
     3
 72
    12
 73
     8
 74
     6
 42
0.0000000001
 43
0.0000000001
 44
0.0000000001
 40
0.0
 40
0.0
 40
0.0
 40
0.0
 40
0.5333908302638627
 40
1.065066568491918
 40
1.585400896368051
 40
2.08770415336013
 40
2.569317245968105
 40
2.569317245968105
 40
2.569317245968105
 40
2.569317245968105
 10
3264.98904153507
 20
1709.597625947015
 30
0.0
 10
3264.966086056793
 20
1709.774677122778
 30
0.0
 10
3264.920248912454
 20
1710.128210174938
 30
0.0
 10
3264.702653770128
 20
1710.618157082123
 30
0.0
 10
3264.390825928197
 20
1711.035105903964
 30
0.0
 10
3263.998386484502
 20
1711.362294837167
 30
0.0
 10
3263.688027111131
 20
1711.474536767357
 30
0.0
 10
3263.536110601471
 20
1711.529477599615
 30
0.0
 11
3264.98904153507
 21
1709.597625947015
 31
0.0
 11
3264.895008623071
 21
1710.122662697415
 31
0.0
 11
3264.68406895907
 21
1710.610703217015
 31
0.0
 11
3264.37125281967
 21
1711.026508310415
 31
0.0
 11
3263.97900137947
 21
1711.340271548615
 31
0.0
 11
3263.536110601471
 21
1711.529477599615
 31
0.0
  0
SPLINE
  5
17C6
330
1B
100
AcDbEntity
  8
0
  6
Continuous
 62
     0
100
AcDbSpline
210
0.0
220
0.0
230
1.0
 70
     8
 71
     3
 72
     9
 73
     5
 74
     3
 42
0.0000000001
 43
0.0000000001
 44
0.0000000001
 40
0.0
 40
0.0
 40
0.0
 40
0.0
 40
1.399291230401882
 40
2.838087538586916
 40
2.838087538586916
 40
2.838087538586916
 40
2.838087538586916
 10
3266.32153608567
 20
1712.070102096415
 30
0.0
 10
3265.860729516426
 20
1711.996939082818
 30
0.0
 10
3264.926106792108
 20
1711.848547502376
 30
0.0
 10
3264.003757046989
 20
1711.636816637707
 30
0.0
 10
3263.53616279907
 20
1711.529477599615
 30
0.0
 11
3266.32153608567
 21
1712.070102096415
 31
0.0
 11
3264.942099799671
 21
1711.835215995615
 31
0.0
 11
3263.53616279907
 21
1711.529477599615
 31
0.0
  0
SPLINE
  5
17C7
330
1B
100
AcDbEntity
  8
0
  6
Continuous
 62
     0
100
AcDbSpline
210
0.0
220
0.0
230
1.0
 70
     8
 71
     3
 72
     9
 73
     5
 74
     3
 42
0.0000000001
 43
0.0000000001
 44
0.0000000001
 40
0.0
 40
0.0
 40
0.0
 40
0.0
 40
2.743933187973242
 40
5.439678939618725
 40
5.439678939618725
 40
5.439678939618725
 40
5.439678939618725
 10
3261.12665751507
 20
1709.597625947215
 30
0.0
 10
3260.218239860134
 20
1709.704884206237
 30
0.0
 10
3258.417357678456
 20
1709.917517114086
 30
0.0
 10
3256.609985675157
 20
1710.065108480444
 30
0.0
 10
3255.714304982671
 20
1710.138250444015
 30
0.0
 11
3261.12665751507
 21
1709.597625947215
 31
0.0
 11
3258.39975322247
 21
1709.902850977415
 31
0.0
 11
3255.714304982671
 21
1710.138250444015
 31
0.0
  0
SPLINE
  5
17C8
330
1B
100
AcDbEntity
  8
0
  6
Continuous
 62
     0
100
AcDbSpline
210
0.0
220
0.0
230
1.0
 70
     8
 71
     3
 72
     9
 73
     5
 74
     3
 42
0.0000000001
 43
0.0000000001
 44
0.0000000001
 40
0.0
 40
0.0
 40
0.0
 40
0.0
 40
2.790847009492518
 40
5.532865527555573
 40
5.532865527555573
 40
5.532865527555573
 40
5.532865527555573
 10
3261.36459746427
 20
1711.529477599615
 30
0.0
 10
3260.440451068308
 20
1711.636873286978
 30
0.0
 10
3258.608327086145
 20
1711.849785673216
 30
0.0
 10
3256.769768773616
 20
1711.997096636892
 30
0.0
 10
3255.85860241427
 20
1712.070102096415
 30
0.0
 11
3261.36459746427
 21
1711.529477599615
 31
0.0
 11
3258.590521176471
 21
1711.834973556815
 31
0.0
 11
3255.85860241427
 21
1712.070102096415
 31
0.0
  0
SPLINE
  5
17C9
330
1B
100
AcDbEntity
  8
0
  6
Continuous
 62
     0
100
AcDbSpline
210
0.0
220
0.0
230
1.0
 70
     8
 71
     3
 72
    11
 73
     7
 74
     5
 42
0.0000000001
 43
0.0000000001
 44
0.0000000001
 40
0.0
 40
0.0
 40
0.0
 40
0.0
 40
3.473506368719301
 40
6.91458022265114
 40
10.35565725050584
 40
13.82917511472544
 40
13.82917511472544
 40
13.82917511472544
 40
13.82917511472544
 10
3255.714304982671
 20
1710.138250444015
 30
0.0
 10
3254.558745794353
 20
1710.213129902781
 30
0.0
 10
3252.258417002214
 20
1710.362189662489
 30
0.0
 10
3248.805949530105
 20
1710.421023200699
 30
0.0
 10
3245.353478212358
 20
1710.362190118228
 30
0.0
 10
3243.053144533411
 20
1710.213130114378
 30
0.0
 10
3241.89758151747
 20
1710.138250444015
 30
0.0
 11
3255.714304982671
 21
1710.138250444015
 31
0.0
 11
3252.24638592687
 21
1710.335186768615
 31
0.0
 11
3248.805950586071
 21
1710.401473524415
 31
0.0
 11
3245.365512062271
 21
1710.335187209215
 31
0.0
 11
3241.89758151747
 21
1710.138250444015
 31
0.0
  0
SPLINE
  5
17CA
330
1B
100
AcDbEntity
  8
0
  6
Continuous
 62
     0
100
AcDbSpline
210
0.0
220
0.0
230
1.0
 70
     8
 71
     3
 72
     9
 73
     5
 74
     3
 42
0.0000000001
 43
0.0000000001
 44
0.0000000001
 40
0.0
 40
0.0
 40
0.0
 40
0.0
 40
2.695780945438163
 40
5.439678939338056
 40
5.439678939338056
 40
5.439678939338056
 40
5.439678939338056
 10
3241.89758151747
 20
1710.138250444015
 30
0.0
 10
3241.001889136735
 20
1710.065107448137
 30
0.0
 10
3239.194517143898
 20
1709.917515925573
 30
0.0
 10
3237.393634979728
 20
1709.704882893297
 30
0.0
 10
3236.48522898507
 20
1709.597625947215
 30
0.0
 11
3241.89758151747
 21
1710.138250444015
 31
0.0
 11
3239.21209825627
 21
1709.902847471215
 31
0.0
 11
3236.48522898507
 21
1709.597625947215
 31
0.0
  0
SPLINE
  5
17CB
330
1B
100
AcDbEntity
  8
0
  6
Continuous
 62
     0
100
AcDbSpline
210
0.0
220
0.0
230
1.0
 70
     8
 71
     3
 72
     9
 73
     5
 74
     3
 42
0.0000000001
 43
0.0000000001
 44
0.0000000001
 40
0.0
 40
0.0
 40
0.0
 40
0.0
 40
2.742055125415179
 40
5.53286337942916
 40
5.53286337942916
 40
5.53286337942916
 40
5.53286337942916
 10
3241.75328408587
 20
1712.070102096415
 30
0.0
 10
3240.842105564909
 20
1711.9970956031
 30
0.0
 10
3239.003547972094
 20
1711.849784577301
 30
0.0
 10
3237.171424739869
 20
1711.636871955917
 30
0.0
 10
3236.247291196671
 20
1711.529477599615
 30
0.0
 11
3241.75328408587
 21
1712.070102096415
 31
0.0
 11
3239.02132888967
 21
1711.834969970215
 31
0.0
 11
3236.247291196671
 21
1711.529477599615
 31
0.0
  0
SPLINE
  5
17CC
330
1B
100
AcDbEntity
  8
0
  6
Continuous
 62
     0
100
AcDbSpline
210
0.0
220
0.0
230
1.0
 70
     8
 71
     3
 72
     9
 73
     5
 74
     3
 42
0.0000000001
 43
0.0000000001
 44
0.0000000001
 40
0.0
 40
0.0
 40
0.0
 40
0.0
 40
1.398484515513872
 40
2.76040117097588
 40
2.76040117097588
 40
2.76040117097588
 40
2.76040117097588
 10
3232.622844964871
 20
1709.597625947215
 30
0.0
 10
3232.169018665657
 20
1709.704857263773
 30
0.0
 10
3231.273232810414
 20
1709.916515990422
 30
0.0
 10
3230.364845509817
 20
1710.064994606365
 30
0.0
 10
3229.91666869867
 20
1710.138250444015
 30
0.0
 11
3232.622844964871
 21
1709.597625947215
 31
0.0
 11
3231.25813168547
 21
1709.903103614415
 31
0.0
 11
3229.91666869867
 21
1710.138250444015
 31
0.0
  0
SPLINE
  5
17CD
330
1B
100
AcDbEntity
  8
0
  6
Continuous
 62
     0
100
AcDbSpline
210
0.0
220
0.0
230
1.0
 70
     8
 71
     3
 72
     9
 73
     5
 74
     3
 42
0.0000000001
 43
0.0000000001
 44
0.0000000001
 40
0.0
 40
0.0
 40
0.0
 40
0.0
 40
1.438860588321574
 40
2.838088916140332
 40
2.838088916140332
 40
2.838088916140332
 40
2.838088916140332
 10
3234.07572510847
 20
1711.529477599615
 30
0.0
 10
3233.608109888702
 20
1711.636821112218
 30
0.0
 10
3232.685759535222
 20
1711.84855144649
 30
0.0
 10
3231.751136298007
 20
1711.99694261187
 30
0.0
 10
3231.29035041427
 20
1712.070102096415
 30
0.0
 11
3234.07572510847
 21
1711.529477599615
 31
0.0
 11
3232.66972493807
 21
1711.835228010015
 31
0.0
 11
3231.29035041427
 21
1712.070102096415
 31
0.0
  0
SPLINE
  5
17CE
330
1B
100
AcDbEntity
  8
0
  6
Continuous
 62
     0
100
AcDbSpline
210
0.0
220
0.0
230
1.0
 70
     8
 71
     3
 72
    12
 73
     8
 74
     6
 42
0.0000000001
 43
0.0000000001
 44
0.0000000001
 40
0.0
 40
0.0
 40
0.0
 40
0.0
 40
0.5335618727405364
 40
1.06494301493438
 40
1.58492543067889
 40
2.087012599253408
 40
2.569316497498349
 40
2.569316497498349
 40
2.569316497498349
 40
2.569316497498349
 10
3232.622844964871
 20
1709.597625947015
 30
0.0
 10
3232.645811058431
 20
1709.774734072707
 30
0.0
 10
3232.691649380407
 20
1710.128226462213
 30
0.0
 10
3232.909181599186
 20
1710.618018955293
 30
0.0
 10
3233.220776692495
 20
1711.034771951681
 30
0.0
 10
3233.613143178667
 20
1711.362105719897
 30
0.0
 10
3233.923645040088
 20
1711.474439495601
 30
0.0
 10
3234.07577589867
 20
1711.529477599615
 30
0.0
 11
3232.622844964871
 21
1709.597625947015
 31
0.0
 11
3232.71692755047
 21
1710.122827564615
 31
0.0
 11
3232.927755172271
 21
1710.610595575215
 31
0.0
 11
3233.24030084647
 21
1711.026163757615
 31
0.0
 11
3233.632287521071
 21
1711.339912019415
 31
0.0
 11
3234.07577589867
 21
1711.529477599615
 31
0.0
  0
SPLINE
  5
17CF
330
1B
100
AcDbEntity
  8
0
  6
Continuous
 62
     0
100
AcDbSpline
210
0.0
220
0.0
230
1.0
 70
     8
 71
     3
 72
    11
 73
     7
 74
     5
 42
0.0000000001
 43
0.0000000001
 44
0.0000000001
 40
0.0
 40
0.0
 40
0.0
 40
0.0
 40
1.731909568036715
 40
3.449237429478822
 40
5.177077550651553
 40
6.933210356709652
 40
6.933210356709652
 40
6.933210356709652
 40
6.933210356709652
 10
3229.91666869867
 20
1710.138250444015
 30
0.0
 10
3229.343888632131
 20
1710.212619754487
 30
0.0
 10
3228.203150985759
 20
1710.360732227572
 30
0.0
 10
3226.476382740842
 20
1710.421195822921
 30
0.0
 10
3224.74140609437
 20
1710.362814440106
 30
0.0
 10
3223.589125825511
 20
1710.213509269059
 30
0.0
 10
3223.00830696607
 20
1710.138250444015
 30
0.0
 11
3229.91666869867
 21
1710.138250444015
 31
0.0
 11
3228.195876682271
 21
1710.334172847415
 31
0.0
 11
3226.47986778787
 21
1710.401466666015
 31
0.0
 11
3224.75326730487
 21
1710.336027714015
 31
0.0
 11
3223.00830696607
 21
1710.138250444015
 31
0.0
  0
SPLINE
  5
17D0
330
1B
100
AcDbEntity
  8
0
  6
Continuous
 62
     0
100
AcDbSpline
210
0.0
220
0.0
230
1.0
 70
     8
 71
     3
 72
    10
 73
     6
 74
     4
 42
0.0000000001
 43
0.0000000001
 44
0.0000000001
 40
0.0
 40
0.0
 40
0.0
 40
0.0
 40
0.9048196316623113
 40
1.82498031217715
 40
2.760540378414421
 40
2.760540378414421
 40
2.760540378414421
 40
2.760540378414421
 10
3223.00830696607
 20
1710.138250444015
 30
0.0
 10
3222.710470002281
 20
1710.0905851835
 30
0.0
 10
3222.109746304282
 20
1709.994446506828
 30
0.0
 10
3221.207368479608
 20
1709.812802781531
 30
0.0
 10
3220.605541346778
 20
1709.669747266544
 30
0.0
 10
3220.302130699871
 20
1709.597625948015
 30
0.0
 11
3223.00830696607
 21
1710.138250444015
 31
0.0
 11
3222.115820124871
 21
1709.989368597815
 31
0.0
 11
3221.21357735027
 21
1709.808665378015
 31
0.0
 11
3220.302130699871
 21
1709.597625948015
 31
0.0
  0
LINE
  5
17D1
330
1B
100
AcDbEntity
  8
0
  6
Continuous
 62
     0
100
AcDbLine
 10
3320.00594325007
 20
1700.070102096415
 30
0.0
 11
3320.00594325007
 21
1709.597625947015
 31
0.0
  0
LINE
  5
17D2
330
1B
100
AcDbEntity
  8
0
  6
Continuous
 62
     0
100
AcDbLine
 10
3322.80594325007
 20
1681.435787521415
 30
0.0
 11
3322.80594325007
 21
1690.170102096415
 31
0.0
  0
LINE
  5
17D3
330
1B
100
AcDbEntity
  8
0
  6
Continuous
 62
     0
100
AcDbLine
 10
3324.50594325007
 20
1679.570102096415
 30
0.0
 11
3324.50594325007
 21
1691.870102096415
 31
0.0
  0
LINE
  5
17D4
330
1B
100
AcDbEntity
  8
0
  6
Continuous
 62
     0
100
AcDbLine
 10
3325.30594325007
 20
1693.084315658815
 30
0.0
 11
3325.30594325007
 21
1699.070102096415
 31
0.0
  0
LINE
  5
17D5
330
1B
100
AcDbEntity
  8
0
  6
Continuous
 62
     0
100
AcDbLine
 10
3332.62284496487
 20
1700.070102096415
 30
0.0
 11
3332.62284496487
 21
1709.597625947215
 31
0.0
  0
LINE
  5
17D6
330
1B
100
AcDbEntity
  8
0
  6
Continuous
 62
     0
100
AcDbLine
 10
3336.485228985071
 20
1709.597625947215
 30
0.0
 11
3336.485228985071
 21
1700.070102096415
 31
0.0
  0
LINE
  5
17D7
330
1B
100
AcDbEntity
  8
0
  6
Continuous
 62
     0
100
AcDbLine
 10
3336.485228985071
 20
1709.597625947015
 30
0.0
 11
3336.24725618647
 21
1711.529477599615
 31
0.0
  0
LINE
  5
17D8
330
1B
100
AcDbEntity
  8
0
  6
Continuous
 62
     0
100
AcDbLine
 10
3361.12665751507
 20
1700.070102096415
 30
0.0
 11
3361.12665751507
 21
1709.597625947215
 31
0.0
  0
LINE
  5
17D9
330
1B
100
AcDbEntity
  8
0
  6
Continuous
 62
     0
100
AcDbLine
 10
3364.98904153507
 20
1709.597625947215
 30
0.0
 11
3364.98904153507
 21
1700.070102096415
 31
0.0
  0
LINE
  5
17DA
330
1B
100
AcDbEntity
  8
0
  6
Continuous
 62
     0
100
AcDbLine
 10
3372.30594325007
 20
1693.084315658815
 30
0.0
 11
3372.30594325007
 21
1699.070102096415
 31
0.0
  0
LINE
  5
17DB
330
1B
100
AcDbEntity
  8
0
  6
Continuous
 62
     0
100
AcDbLine
 10
3373.10594325007
 20
1679.570102096415
 30
0.0
 11
3373.10594325007
 21
1691.870102096415
 31
0.0
  0
LINE
  5
17DC
330
1B
100
AcDbEntity
  8
0
  6
Continuous
 62
     0
100
AcDbLine
 10
3374.80594325007
 20
1681.435787521415
 30
0.0
 11
3374.80594325007
 21
1690.170102096415
 31
0.0
  0
LINE
  5
17DD
330
1B
100
AcDbEntity
  8
0
  6
Continuous
 62
     0
100
AcDbLine
 10
3377.60594325007
 20
1700.070102096415
 30
0.0
 11
3377.60594325007
 21
1709.597625947015
 31
0.0
  0
LINE
  5
17DE
330
1B
100
AcDbEntity
  8
0
  6
Continuous
 62
     0
100
AcDbLine
 10
3361.12665751507
 20
1709.597625947015
 30
0.0
 11
3361.364630313671
 21
1711.529477599615
 31
0.0
  0
LINE
  5
17DF
330
1B
100
AcDbEntity
  8
0
  6
Continuous
 62
     0
100
AcDbLine
 10
3324.88878596247
 20
1679.187259384015
 30
0.0
 11
3322.92310053747
 21
1681.152944809015
 31
0.0
  0
LINE
  5
17E0
330
1B
100
AcDbEntity
  8
0
  6
Continuous
 62
     0
100
AcDbLine
 10
3374.80594325007
 20
1690.170102096415
 30
0.0
 11
3372.598836468871
 21
1692.377208877615
 31
0.0
  0
LINE
  5
17E1
330
1B
100
AcDbEntity
  8
0
  6
Continuous
 62
     0
100
AcDbLine
 10
3322.80594325007
 20
1690.170102096415
 30
0.0
 11
3325.01305003127
 21
1692.377208877615
 31
0.0
  0
LINE
  5
17E2
330
1B
100
AcDbEntity
  8
0
  6
Continuous
 62
     0
100
AcDbLine
 10
3372.72310053747
 20
1679.187259384015
 30
0.0
 11
3374.688785962471
 21
1681.152944809015
 31
0.0
  0
LINE
  5
17E3
330
1B
100
AcDbEntity
  8
0
  6
Continuous
 62
     0
100
AcDbLine
 10
3376.123581340271
 20
1711.529477599615
 30
0.0
 11
3374.105943250071
 21
1712.070102096415
 31
0.0
  0
LINE
  5
17E4
330
1B
100
AcDbEntity
  8
0
  6
Continuous
 62
     0
100
AcDbLine
 10
3372.440257825071
 20
1679.070102096415
 30
0.0
 11
3325.17162867487
 21
1679.070102096415
 31
0.0
  0
LINE
  5
17E5
330
1B
100
AcDbEntity
  8
0
  6
Continuous
 62
     0
100
AcDbLine
 10
3324.50594325007
 20
1679.570102096415
 30
0.0
 11
3373.10594325007
 21
1679.570102096415
 31
0.0
  0
LINE
  5
17E6
330
1B
100
AcDbEntity
  8
0
  6
Continuous
 62
     0
100
AcDbLine
 10
3374.688785962471
 20
1681.152944809015
 30
0.0
 11
3322.92310053747
 21
1681.152944809015
 31
0.0
  0
LINE
  5
17E7
330
1B
100
AcDbEntity
  8
0
  6
Continuous
 62
     0
100
AcDbLine
 10
3322.80594325007
 20
1690.170102096415
 30
0.0
 11
3374.80594325007
 21
1690.170102096415
 31
0.0
  0
LINE
  5
17E8
330
1B
100
AcDbEntity
  8
0
  6
Continuous
 62
     0
100
AcDbLine
 10
3324.50594325007
 20
1691.870102287215
 30
0.0
 11
3373.10594325007
 21
1691.870102287215
 31
0.0
  0
LINE
  5
17E9
330
1B
100
AcDbEntity
  8
0
  6
Continuous
 62
     0
100
AcDbLine
 10
3325.30594325007
 20
1693.084315658815
 30
0.0
 11
3372.30594325007
 21
1693.084315658815
 31
0.0
  0
LINE
  5
17EA
330
1B
100
AcDbEntity
  8
0
  6
Continuous
 62
     0
100
AcDbLine
 10
3325.30594325007
 20
1699.070102096415
 30
0.0
 11
3372.30594325007
 21
1699.070102096415
 31
0.0
  0
LINE
  5
17EB
330
1B
100
AcDbEntity
  8
0
  6
Continuous
 62
     0
100
AcDbLine
 10
3320.00594518747
 20
1700.070102096415
 30
0.0
 11
3377.605941312471
 21
1700.070102096415
 31
0.0
  0
LINE
  5
17EC
330
1B
100
AcDbEntity
  8
0
  6
Continuous
 62
     0
100
AcDbLine
 10
3377.60594325007
 20
1709.597625947015
 30
0.0
 11
3377.309755800071
 21
1709.597625947015
 31
0.0
  0
LINE
  5
17ED
330
1B
100
AcDbEntity
  8
0
  6
Continuous
 62
     0
100
AcDbLine
 10
3364.98904153507
 20
1709.597625947015
 30
0.0
 11
3361.12665751507
 21
1709.597625947015
 31
0.0
  0
LINE
  5
17EE
330
1B
100
AcDbEntity
  8
0
  6
Continuous
 62
     0
100
AcDbLine
 10
3336.485228985071
 20
1709.597625947015
 30
0.0
 11
3332.62284496487
 21
1709.597625947015
 31
0.0
  0
LINE
  5
17EF
330
1B
100
AcDbEntity
  8
0
  6
Continuous
 62
     0
100
AcDbLine
 10
3320.302130699871
 20
1709.597625947015
 30
0.0
 11
3320.00594325007
 21
1709.597625947015
 31
0.0
  0
LINE
  5
17F0
330
1B
100
AcDbEntity
  8
0
  6
Continuous
 62
     0
100
AcDbLine
 10
3376.123581340271
 20
1711.529477599615
 30
0.0
 11
3376.09479769807
 21
1711.529477599615
 31
0.0
  0
LINE
  5
17F1
330
1B
100
AcDbEntity
  8
0
  6
Continuous
 62
     0
100
AcDbLine
 10
3363.53616279907
 20
1711.529477599615
 30
0.0
 11
3361.36459746427
 21
1711.529477599615
 31
0.0
  0
LINE
  5
17F2
330
1B
100
AcDbEntity
  8
0
  6
Continuous
 62
     0
100
AcDbLine
 10
3336.24729119667
 20
1711.529477599615
 30
0.0
 11
3334.07572510847
 21
1711.529477599615
 31
0.0
  0
LINE
  5
17F3
330
1B
100
AcDbEntity
  8
0
  6
Continuous
 62
     0
100
AcDbLine
 10
3321.51708880287
 20
1711.529477599615
 30
0.0
 11
3321.488305159871
 21
1711.529477599615
 31
0.0
  0
LINE
  5
17F4
330
1B
100
AcDbEntity
  8
0
  6
Continuous
 62
     0
100
AcDbLine
 10
3321.488305159871
 20
1711.529477599615
 30
0.0
 11
3323.505943250071
 21
1712.070102096415
 31
0.0
  0
ARC
  5
17F5
330
1B
100
AcDbEntity
  8
0
  6
Continuous
 62
     0
100
AcDbCircle
 10
3372.440257825071
 20
1679.470102096415
 30
0.0
 40
0.4
100
AcDbArc
 50
270.0000000000004
 51
314.9999999916998
  0
ARC
  5
17F6
330
1B
100
AcDbEntity
  8
0
  6
Continuous
 62
     0
100
AcDbCircle
 10
3325.17162867487
 20
1679.470102096415
 30
0.0
 40
0.4
100
AcDbArc
 50
225.0000000064017
 51
270.0000000000004
  0
ARC
  5
17F7
330
1B
100
AcDbEntity
  8
0
  6
Continuous
 62
     0
100
AcDbCircle
 10
3374.405943250071
 20
1681.435787521415
 30
0.0
 40
0.4
100
AcDbArc
 50
314.9999999997991
 51
0.0
  0
ARC
  5
17F8
330
1B
100
AcDbEntity
  8
0
  6
Continuous
 62
     0
100
AcDbCircle
 10
3323.205943250071
 20
1681.435787521415
 30
0.0
 40
0.4
100
AcDbArc
 50
180.0
 51
225.0000000002018
  0
ARC
  5
17F9
330
1B
100
AcDbEntity
  8
0
  6
Continuous
 62
     0
100
AcDbCircle
 10
3375.60594325007
 20
1709.597625947015
 30
0.0
 40
2.0
100
AcDbArc
 50
0.0
 51
75.00000000000044
  0
ARC
  5
17FA
330
1B
100
AcDbEntity
  8
0
  6
Continuous
 62
     0
100
AcDbCircle
 10
3322.005943250071
 20
1709.597625947015
 30
0.0
 40
2.0
100
AcDbArc
 50
105.0
 51
180.0
  0
ARC
  5
17FB
330
1B
100
AcDbEntity
  8
0
  6
Continuous
 62
     0
100
AcDbCircle
 10
3373.30594325007
 20
1699.070102096415
 30
0.0
 40
1.0
100
AcDbArc
 50
90.0
 51
180.0
  0
ARC
  5
17FC
330
1B
100
AcDbEntity
  8
0
  6
Continuous
 62
     0
100
AcDbCircle
 10
3324.30594325007
 20
1699.070102096415
 30
0.0
 40
1.0
100
AcDbArc
 50
0.0
 51
90.0
  0
ARC
  5
17FD
330
1B
100
AcDbEntity
  8
0
  6
Continuous
 62
     0
100
AcDbCircle
 10
3373.30594325007
 20
1693.084315658815
 30
0.0
 40
1.0
100
AcDbArc
 50
180.0
 51
225.0000000004992
  0
ARC
  5
17FE
330
1B
100
AcDbEntity
  8
0
  6
Continuous
 62
     0
100
AcDbCircle
 10
3324.30594325007
 20
1693.084315658815
 30
0.0
 40
1.0
100
AcDbArc
 50
314.9999999994006
 51
0.0
  0
SPLINE
  5
17FF
330
1B
100
AcDbEntity
  8
0
  6
Continuous
 62
     0
100
AcDbSpline
210
0.0
220
0.0
230
1.0
 70
     8
 71
     3
 72
    10
 73
     6
 74
     4
 42
0.0000000001
 43
0.0000000001
 44
0.0000000001
 40
0.0
 40
0.0
 40
0.0
 40
0.0
 40
0.9356392924635746
 40
1.855790929782433
 40
2.76054037748077
 40
2.76054037748077
 40
2.76054037748077
 40
2.76054037748077
 10
3377.309755800071
 20
1709.597625948015
 30
0.0
 10
3377.006319409131
 20
1709.669753181814
 30
0.0
 10
3376.404469415647
 20
1709.812813725929
 30
0.0
 10
3375.50209109477
 20
1709.994454965952
 30
0.0
 10
3374.901393422034
 20
1710.090589075719
 30
0.0
 10
3374.603579533871
 20
1710.138250444015
 30
0.0
 11
3377.309755800071
 21
1709.597625948015
 31
0.0
 11
3376.398231698271
 21
1709.808682095615
 31
0.0
 11
3375.49599733007
 21
1709.989381239215
 31
0.0
 11
3374.603579533871
 21
1710.138250444015
 31
0.0
  0
SPLINE
  5
1800
330
1B
100
AcDbEntity
  8
0
  6
Continuous
 62
     0
100
AcDbSpline
210
0.0
220
0.0
230
1.0
 70
     8
 71
     3
 72
    11
 73
     7
 74
     5
 42
0.0000000001
 43
0.0000000001
 44
0.0000000001
 40
0.0
 40
0.0
 40
0.0
 40
0.0
 40
1.756137102781335
 40
3.483978265283534
 40
5.2013267197783
 40
6.93321035450233
 40
6.93321035450233
 40
6.93321035450233
 40
6.93321035450233
 10
3374.603579533871
 20
1710.138250444015
 30
0.0
 10
3374.022759248516
 20
1710.213509428925
 30
0.0
 10
3372.870477204588
 20
1710.362814780584
 30
0.0
 10
3371.135491892661
 20
1710.421196078881
 30
0.0
 10
3369.408725086215
 20
1710.360731301663
 30
0.0
 10
3368.26798926265
 20
1710.212618780283
 30
0.0
 10
3367.695217801271
 20
1710.138250444015
 30
0.0
 11
3374.603579533871
 21
1710.138250444015
 31
0.0
 11
3372.858614908671
 21
1710.336028047815
 31
0.0
 11
3371.13201337067
 21
1710.401466658815
 31
0.0
 11
3369.41598394607
 21
1710.334170833815
 31
0.0
 11
3367.695217801271
 21
1710.138250444015
 31
0.0
  0
SPLINE
  5
1801
330
1B
100
AcDbEntity
  8
0
  6
Continuous
 62
     0
100
AcDbSpline
210
0.0
220
0.0
230
1.0
 70
     8
 71
     3
 72
     9
 73
     5
 74
     3
 42
0.0000000001
 43
0.0000000001
 44
0.0000000001
 40
0.0
 40
0.0
 40
0.0
 40
0.0
 40
1.36197704538744
 40
2.760401168773879
 40
2.760401168773879
 40
2.760401168773879
 40
2.760401168773879
 10
3367.695217801271
 20
1710.138250444015
 30
0.0
 10
3367.247021152492
 20
1710.064991095492
 30
0.0
 10
3366.338633924293
 20
1709.916511947499
 30
0.0
 10
3365.442848180275
 20
1709.704852830789
 30
0.0
 10
3364.98904153507
 20
1709.597625947215
 30
0.0
 11
3367.695217801271
 21
1710.138250444015
 31
0.0
 11
3366.35369558307
 21
1709.903091752415
 31
0.0
 11
3364.98904153507
 21
1709.597625947215
 31
0.0
  0
SPLINE
  5
1802
330
1B
100
AcDbEntity
  8
0
  6
Continuous
 62
     0
100
AcDbSpline
210
0.0
220
0.0
230
1.0
 70
     8
 71
     3
 72
    12
 73
     8
 74
     6
 42
0.0000000001
 43
0.0000000001
 44
0.0000000001
 40
0.0
 40
0.0
 40
0.0
 40
0.0
 40
0.5333908302638627
 40
1.065066568491918
 40
1.585400896368051
 40
2.08770415336013
 40
2.569317245968105
 40
2.569317245968105
 40
2.569317245968105
 40
2.569317245968105
 10
3364.98904153507
 20
1709.597625947015
 30
0.0
 10
3364.966086056793
 20
1709.774677122778
 30
0.0
 10
3364.920248912452
 20
1710.128210174938
 30
0.0
 10
3364.70265377013
 20
1710.618157082123
 30
0.0
 10
3364.390825928196
 20
1711.035105903964
 30
0.0
 10
3363.998386484503
 20
1711.362294837167
 30
0.0
 10
3363.688027111131
 20
1711.474536767357
 30
0.0
 10
3363.536110601471
 20
1711.529477599615
 30
0.0
 11
3364.98904153507
 21
1709.597625947015
 31
0.0
 11
3364.895008623071
 21
1710.122662697415
 31
0.0
 11
3364.68406895907
 21
1710.610703217015
 31
0.0
 11
3364.37125281967
 21
1711.026508310415
 31
0.0
 11
3363.97900137947
 21
1711.340271548615
 31
0.0
 11
3363.536110601471
 21
1711.529477599615
 31
0.0
  0
SPLINE
  5
1803
330
1B
100
AcDbEntity
  8
0
  6
Continuous
 62
     0
100
AcDbSpline
210
0.0
220
0.0
230
1.0
 70
     8
 71
     3
 72
     9
 73
     5
 74
     3
 42
0.0000000001
 43
0.0000000001
 44
0.0000000001
 40
0.0
 40
0.0
 40
0.0
 40
0.0
 40
1.399291230403227
 40
2.838087538588261
 40
2.838087538588261
 40
2.838087538588261
 40
2.838087538588261
 10
3366.321536085671
 20
1712.070102096415
 30
0.0
 10
3365.860729516427
 20
1711.996939082817
 30
0.0
 10
3364.926106792109
 20
1711.848547502376
 30
0.0
 10
3364.003757046989
 20
1711.636816637708
 30
0.0
 10
3363.53616279907
 20
1711.529477599615
 30
0.0
 11
3366.321536085671
 21
1712.070102096415
 31
0.0
 11
3364.942099799671
 21
1711.835215995615
 31
0.0
 11
3363.53616279907
 21
1711.529477599615
 31
0.0
  0
SPLINE
  5
1804
330
1B
100
AcDbEntity
  8
0
  6
Continuous
 62
     0
100
AcDbSpline
210
0.0
220
0.0
230
1.0
 70
     8
 71
     3
 72
     9
 73
     5
 74
     3
 42
0.0000000001
 43
0.0000000001
 44
0.0000000001
 40
0.0
 40
0.0
 40
0.0
 40
0.0
 40
2.743933187973242
 40
5.439678939618725
 40
5.439678939618725
 40
5.439678939618725
 40
5.439678939618725
 10
3361.12665751507
 20
1709.597625947215
 30
0.0
 10
3360.218239860134
 20
1709.704884206237
 30
0.0
 10
3358.417357678455
 20
1709.917517114086
 30
0.0
 10
3356.609985675157
 20
1710.065108480444
 30
0.0
 10
3355.714304982671
 20
1710.138250444015
 30
0.0
 11
3361.12665751507
 21
1709.597625947215
 31
0.0
 11
3358.39975322247
 21
1709.902850977415
 31
0.0
 11
3355.714304982671
 21
1710.138250444015
 31
0.0
  0
SPLINE
  5
1805
330
1B
100
AcDbEntity
  8
0
  6
Continuous
 62
     0
100
AcDbSpline
210
0.0
220
0.0
230
1.0
 70
     8
 71
     3
 72
     9
 73
     5
 74
     3
 42
0.0000000001
 43
0.0000000001
 44
0.0000000001
 40
0.0
 40
0.0
 40
0.0
 40
0.0
 40
2.790847009493874
 40
5.53286552755557
 40
5.53286552755557
 40
5.53286552755557
 40
5.53286552755557
 10
3361.36459746427
 20
1711.529477599615
 30
0.0
 10
3360.440451068307
 20
1711.636873286977
 30
0.0
 10
3358.608327086145
 20
1711.849785673215
 30
0.0
 10
3356.769768773615
 20
1711.997096636892
 30
0.0
 10
3355.85860241427
 20
1712.070102096415
 30
0.0
 11
3361.36459746427
 21
1711.529477599615
 31
0.0
 11
3358.59052117647
 21
1711.834973556815
 31
0.0
 11
3355.85860241427
 21
1712.070102096415
 31
0.0
  0
SPLINE
  5
1806
330
1B
100
AcDbEntity
  8
0
  6
Continuous
 62
     0
100
AcDbSpline
210
0.0
220
0.0
230
1.0
 70
     8
 71
     3
 72
    11
 73
     7
 74
     5
 42
0.0000000001
 43
0.0000000001
 44
0.0000000001
 40
0.0
 40
0.0
 40
0.0
 40
0.0
 40
3.473506368719301
 40
6.91458022265114
 40
10.35565725050584
 40
13.82917511472544
 40
13.82917511472544
 40
13.82917511472544
 40
13.82917511472544
 10
3355.714304982671
 20
1710.138250444015
 30
0.0
 10
3354.558745794353
 20
1710.213129902781
 30
0.0
 10
3352.258417002216
 20
1710.362189662489
 30
0.0
 10
3348.805949530105
 20
1710.421023200699
 30
0.0
 10
3345.353478212358
 20
1710.362190118228
 30
0.0
 10
3343.05314453341
 20
1710.213130114378
 30
0.0
 10
3341.89758151747
 20
1710.138250444015
 30
0.0
 11
3355.714304982671
 21
1710.138250444015
 31
0.0
 11
3352.24638592687
 21
1710.335186768615
 31
0.0
 11
3348.805950586071
 21
1710.401473524415
 31
0.0
 11
3345.365512062271
 21
1710.335187209215
 31
0.0
 11
3341.89758151747
 21
1710.138250444015
 31
0.0
  0
SPLINE
  5
1807
330
1B
100
AcDbEntity
  8
0
  6
Continuous
 62
     0
100
AcDbSpline
210
0.0
220
0.0
230
1.0
 70
     8
 71
     3
 72
     9
 73
     5
 74
     3
 42
0.0000000001
 43
0.0000000001
 44
0.0000000001
 40
0.0
 40
0.0
 40
0.0
 40
0.0
 40
2.695780945438163
 40
5.439678939337153
 40
5.439678939337153
 40
5.439678939337153
 40
5.439678939337153
 10
3341.89758151747
 20
1710.138250444015
 30
0.0
 10
3341.001889136735
 20
1710.065107448137
 30
0.0
 10
3339.194517143897
 20
1709.917515925573
 30
0.0
 10
3337.39363497973
 20
1709.704882893297
 30
0.0
 10
3336.485228985071
 20
1709.597625947215
 30
0.0
 11
3341.89758151747
 21
1710.138250444015
 31
0.0
 11
3339.21209825627
 21
1709.902847471215
 31
0.0
 11
3336.485228985071
 21
1709.597625947215
 31
0.0
  0
SPLINE
  5
1808
330
1B
100
AcDbEntity
  8
0
  6
Continuous
 62
     0
100
AcDbSpline
210
0.0
220
0.0
230
1.0
 70
     8
 71
     3
 72
     9
 73
     5
 74
     3
 42
0.0000000001
 43
0.0000000001
 44
0.0000000001
 40
0.0
 40
0.0
 40
0.0
 40
0.0
 40
2.742055125416539
 40
5.532863379431424
 40
5.532863379431424
 40
5.532863379431424
 40
5.532863379431424
 10
3341.753284085871
 20
1712.070102096415
 30
0.0
 10
3340.84210556491
 20
1711.9970956031
 30
0.0
 10
3339.003547972093
 20
1711.8497845773
 30
0.0
 10
3337.171424739869
 20
1711.636871955917
 30
0.0
 10
3336.24729119667
 20
1711.529477599615
 30
0.0
 11
3341.753284085871
 21
1712.070102096415
 31
0.0
 11
3339.02132888967
 21
1711.834969970215
 31
0.0
 11
3336.24729119667
 21
1711.529477599615
 31
0.0
  0
SPLINE
  5
1809
330
1B
100
AcDbEntity
  8
0
  6
Continuous
 62
     0
100
AcDbSpline
210
0.0
220
0.0
230
1.0
 70
     8
 71
     3
 72
     9
 73
     5
 74
     3
 42
0.0000000001
 43
0.0000000001
 44
0.0000000001
 40
0.0
 40
0.0
 40
0.0
 40
0.0
 40
1.398484515511653
 40
2.760401170974109
 40
2.760401170974109
 40
2.760401170974109
 40
2.760401170974109
 10
3332.62284496487
 20
1709.597625947215
 30
0.0
 10
3332.169018665656
 20
1709.704857263773
 30
0.0
 10
3331.273232810415
 20
1709.916515990422
 30
0.0
 10
3330.364845509817
 20
1710.064994606364
 30
0.0
 10
3329.916668698671
 20
1710.138250444015
 30
0.0
 11
3332.62284496487
 21
1709.597625947215
 31
0.0
 11
3331.258131685471
 21
1709.903103614415
 31
0.0
 11
3329.916668698671
 21
1710.138250444015
 31
0.0
  0
SPLINE
  5
180A
330
1B
100
AcDbEntity
  8
0
  6
Continuous
 62
     0
100
AcDbSpline
210
0.0
220
0.0
230
1.0
 70
     8
 71
     3
 72
     9
 73
     5
 74
     3
 42
0.0000000001
 43
0.0000000001
 44
0.0000000001
 40
0.0
 40
0.0
 40
0.0
 40
0.0
 40
1.438860588321574
 40
2.838088916139435
 40
2.838088916139435
 40
2.838088916139435
 40
2.838088916139435
 10
3334.07572510847
 20
1711.529477599615
 30
0.0
 10
3333.608109888701
 20
1711.636821112218
 30
0.0
 10
3332.685759535223
 20
1711.848551446491
 30
0.0
 10
3331.751136298008
 20
1711.99694261187
 30
0.0
 10
3331.290350414271
 20
1712.070102096415
 30
0.0
 11
3334.07572510847
 21
1711.529477599615
 31
0.0
 11
3332.66972493807
 21
1711.835228010015
 31
0.0
 11
3331.290350414271
 21
1712.070102096415
 31
0.0
  0
SPLINE
  5
180B
330
1B
100
AcDbEntity
  8
0
  6
Continuous
 62
     0
100
AcDbSpline
210
0.0
220
0.0
230
1.0
 70
     8
 71
     3
 72
    12
 73
     8
 74
     6
 42
0.0000000001
 43
0.0000000001
 44
0.0000000001
 40
0.0
 40
0.0
 40
0.0
 40
0.0
 40
0.5335618727406968
 40
1.06494301493454
 40
1.584925430679051
 40
2.087012599253569
 40
2.569316497498509
 40
2.569316497498509
 40
2.569316497498509
 40
2.569316497498509
 10
3332.62284496487
 20
1709.597625947015
 30
0.0
 10
3332.645811058431
 20
1709.774734072708
 30
0.0
 10
3332.691649380407
 20
1710.128226462213
 30
0.0
 10
3332.909181599184
 20
1710.618018955292
 30
0.0
 10
3333.220776692496
 20
1711.034771951682
 30
0.0
 10
3333.613143178666
 20
1711.362105719897
 30
0.0
 10
3333.923645040088
 20
1711.474439495601
 30
0.0
 10
3334.07577589867
 20
1711.529477599615
 30
0.0
 11
3332.62284496487
 21
1709.597625947015
 31
0.0
 11
3332.71692755047
 21
1710.122827564615
 31
0.0
 11
3332.927755172271
 21
1710.610595575215
 31
0.0
 11
3333.24030084647
 21
1711.026163757615
 31
0.0
 11
3333.632287521071
 21
1711.339912019415
 31
0.0
 11
3334.07577589867
 21
1711.529477599615
 31
0.0
  0
SPLINE
  5
180C
330
1B
100
AcDbEntity
  8
0
  6
Continuous
 62
     0
100
AcDbSpline
210
0.0
220
0.0
230
1.0
 70
     8
 71
     3
 72
    11
 73
     7
 74
     5
 42
0.0000000001
 43
0.0000000001
 44
0.0000000001
 40
0.0
 40
0.0
 40
0.0
 40
0.0
 40
1.731909568037619
 40
3.449237429479726
 40
5.177077550652457
 40
6.933210356710556
 40
6.933210356710556
 40
6.933210356710556
 40
6.933210356710556
 10
3329.916668698671
 20
1710.138250444015
 30
0.0
 10
3329.343888632131
 20
1710.212619754486
 30
0.0
 10
3328.20315098576
 20
1710.360732227572
 30
0.0
 10
3326.476382740842
 20
1710.421195822922
 30
0.0
 10
3324.741406094369
 20
1710.362814440105
 30
0.0
 10
3323.589125825511
 20
1710.213509269059
 30
0.0
 10
3323.00830696607
 20
1710.138250444015
 30
0.0
 11
3329.916668698671
 21
1710.138250444015
 31
0.0
 11
3328.195876682271
 21
1710.334172847415
 31
0.0
 11
3326.47986778787
 21
1710.401466666015
 31
0.0
 11
3324.75326730487
 21
1710.336027714015
 31
0.0
 11
3323.00830696607
 21
1710.138250444015
 31
0.0
  0
SPLINE
  5
180D
330
1B
100
AcDbEntity
  8
0
  6
Continuous
 62
     0
100
AcDbSpline
210
0.0
220
0.0
230
1.0
 70
     8
 71
     3
 72
    10
 73
     6
 74
     4
 42
0.0000000001
 43
0.0000000001
 44
0.0000000001
 40
0.0
 40
0.0
 40
0.0
 40
0.0
 40
0.9048196316623113
 40
1.82498031217715
 40
2.760540378414421
 40
2.760540378414421
 40
2.760540378414421
 40
2.760540378414421
 10
3323.00830696607
 20
1710.138250444015
 30
0.0
 10
3322.710470002281
 20
1710.0905851835
 30
0.0
 10
3322.109746304283
 20
1709.994446506828
 30
0.0
 10
3321.207368479608
 20
1709.812802781531
 30
0.0
 10
3320.605541346778
 20
1709.669747266544
 30
0.0
 10
3320.302130699871
 20
1709.597625948015
 30
0.0
 11
3323.00830696607
 21
1710.138250444015
 31
0.0
 11
3322.115820124871
 21
1709.989368597815
 31
0.0
 11
3321.21357735027
 21
1709.808665378015
 31
0.0
 11
3320.302130699871
 21
1709.597625948015
 31
0.0
  0
LINE
  5
180E
330
1B
100
AcDbEntity
  8
0
  6
Continuous
 62
     0
100
AcDbLine
 10
3420.00594325007
 20
1700.070102096415
 30
0.0
 11
3420.00594325007
 21
1709.597625947015
 31
0.0
  0
LINE
  5
180F
330
1B
100
AcDbEntity
  8
0
  6
Continuous
 62
     0
100
AcDbLine
 10
3422.80594325007
 20
1681.435787521415
 30
0.0
 11
3422.80594325007
 21
1690.170102096415
 31
0.0
  0
LINE
  5
1810
330
1B
100
AcDbEntity
  8
0
  6
Continuous
 62
     0
100
AcDbLine
 10
3424.50594325007
 20
1679.570102096415
 30
0.0
 11
3424.50594325007
 21
1691.870102096415
 31
0.0
  0
LINE
  5
1811
330
1B
100
AcDbEntity
  8
0
  6
Continuous
 62
     0
100
AcDbLine
 10
3425.30594325007
 20
1693.084315658815
 30
0.0
 11
3425.30594325007
 21
1699.070102096415
 31
0.0
  0
LINE
  5
1812
330
1B
100
AcDbEntity
  8
0
  6
Continuous
 62
     0
100
AcDbLine
 10
3432.62284496487
 20
1700.070102096415
 30
0.0
 11
3432.62284496487
 21
1709.597625947215
 31
0.0
  0
LINE
  5
1813
330
1B
100
AcDbEntity
  8
0
  6
Continuous
 62
     0
100
AcDbLine
 10
3436.48522898507
 20
1709.597625947215
 30
0.0
 11
3436.48522898507
 21
1700.070102096415
 31
0.0
  0
LINE
  5
1814
330
1B
100
AcDbEntity
  8
0
  6
Continuous
 62
     0
100
AcDbLine
 10
3436.48522898507
 20
1709.597625947015
 30
0.0
 11
3436.24725618647
 21
1711.529477599615
 31
0.0
  0
LINE
  5
1815
330
1B
100
AcDbEntity
  8
0
  6
Continuous
 62
     0
100
AcDbLine
 10
3461.12665751507
 20
1700.070102096415
 30
0.0
 11
3461.12665751507
 21
1709.597625947215
 31
0.0
  0
LINE
  5
1816
330
1B
100
AcDbEntity
  8
0
  6
Continuous
 62
     0
100
AcDbLine
 10
3464.989041535071
 20
1709.597625947215
 30
0.0
 11
3464.989041535071
 21
1700.070102096415
 31
0.0
  0
LINE
  5
1817
330
1B
100
AcDbEntity
  8
0
  6
Continuous
 62
     0
100
AcDbLine
 10
3472.30594325007
 20
1693.084315658815
 30
0.0
 11
3472.30594325007
 21
1699.070102096415
 31
0.0
  0
LINE
  5
1818
330
1B
100
AcDbEntity
  8
0
  6
Continuous
 62
     0
100
AcDbLine
 10
3473.10594325007
 20
1679.570102096415
 30
0.0
 11
3473.10594325007
 21
1691.870102096415
 31
0.0
  0
LINE
  5
1819
330
1B
100
AcDbEntity
  8
0
  6
Continuous
 62
     0
100
AcDbLine
 10
3474.80594325007
 20
1681.435787521415
 30
0.0
 11
3474.80594325007
 21
1690.170102096415
 31
0.0
  0
LINE
  5
181A
330
1B
100
AcDbEntity
  8
0
  6
Continuous
 62
     0
100
AcDbLine
 10
3477.60594325007
 20
1700.070102096415
 30
0.0
 11
3477.60594325007
 21
1709.597625947015
 31
0.0
  0
LINE
  5
181B
330
1B
100
AcDbEntity
  8
0
  6
Continuous
 62
     0
100
AcDbLine
 10
3461.12665751507
 20
1709.597625947015
 30
0.0
 11
3461.364630313671
 21
1711.529477599615
 31
0.0
  0
LINE
  5
181C
330
1B
100
AcDbEntity
  8
0
  6
Continuous
 62
     0
100
AcDbLine
 10
3424.88878596247
 20
1679.187259384015
 30
0.0
 11
3422.92310053747
 21
1681.152944809015
 31
0.0
  0
LINE
  5
181D
330
1B
100
AcDbEntity
  8
0
  6
Continuous
 62
     0
100
AcDbLine
 10
3474.80594325007
 20
1690.170102096415
 30
0.0
 11
3472.598836468871
 21
1692.377208877615
 31
0.0
  0
LINE
  5
181E
330
1B
100
AcDbEntity
  8
0
  6
Continuous
 62
     0
100
AcDbLine
 10
3422.80594325007
 20
1690.170102096415
 30
0.0
 11
3425.01305003127
 21
1692.377208877615
 31
0.0
  0
LINE
  5
181F
330
1B
100
AcDbEntity
  8
0
  6
Continuous
 62
     0
100
AcDbLine
 10
3472.723100537471
 20
1679.187259384015
 30
0.0
 11
3474.688785962471
 21
1681.152944809015
 31
0.0
  0
LINE
  5
1820
330
1B
100
AcDbEntity
  8
0
  6
Continuous
 62
     0
100
AcDbLine
 10
3476.123581340271
 20
1711.529477599615
 30
0.0
 11
3474.105943250071
 21
1712.070102096415
 31
0.0
  0
LINE
  5
1821
330
1B
100
AcDbEntity
  8
0
  6
Continuous
 62
     0
100
AcDbLine
 10
3472.44025782507
 20
1679.070102096415
 30
0.0
 11
3425.171628674871
 21
1679.070102096415
 31
0.0
  0
LINE
  5
1822
330
1B
100
AcDbEntity
  8
0
  6
Continuous
 62
     0
100
AcDbLine
 10
3424.50594325007
 20
1679.570102096415
 30
0.0
 11
3473.10594325007
 21
1679.570102096415
 31
0.0
  0
LINE
  5
1823
330
1B
100
AcDbEntity
  8
0
  6
Continuous
 62
     0
100
AcDbLine
 10
3474.688785962471
 20
1681.152944809015
 30
0.0
 11
3422.92310053747
 21
1681.152944809015
 31
0.0
  0
LINE
  5
1824
330
1B
100
AcDbEntity
  8
0
  6
Continuous
 62
     0
100
AcDbLine
 10
3422.80594325007
 20
1690.170102096415
 30
0.0
 11
3474.80594325007
 21
1690.170102096415
 31
0.0
  0
LINE
  5
1825
330
1B
100
AcDbEntity
  8
0
  6
Continuous
 62
     0
100
AcDbLine
 10
3424.50594325007
 20
1691.870102287215
 30
0.0
 11
3473.10594325007
 21
1691.870102287215
 31
0.0
  0
LINE
  5
1826
330
1B
100
AcDbEntity
  8
0
  6
Continuous
 62
     0
100
AcDbLine
 10
3425.30594325007
 20
1693.084315658815
 30
0.0
 11
3472.30594325007
 21
1693.084315658815
 31
0.0
  0
LINE
  5
1827
330
1B
100
AcDbEntity
  8
0
  6
Continuous
 62
     0
100
AcDbLine
 10
3425.30594325007
 20
1699.070102096415
 30
0.0
 11
3472.30594325007
 21
1699.070102096415
 31
0.0
  0
LINE
  5
1828
330
1B
100
AcDbEntity
  8
0
  6
Continuous
 62
     0
100
AcDbLine
 10
3420.00594518747
 20
1700.070102096415
 30
0.0
 11
3477.605941312471
 21
1700.070102096415
 31
0.0
  0
LINE
  5
1829
330
1B
100
AcDbEntity
  8
0
  6
Continuous
 62
     0
100
AcDbLine
 10
3477.60594325007
 20
1709.597625947015
 30
0.0
 11
3477.309755800071
 21
1709.597625947015
 31
0.0
  0
LINE
  5
182A
330
1B
100
AcDbEntity
  8
0
  6
Continuous
 62
     0
100
AcDbLine
 10
3464.989041535071
 20
1709.597625947015
 30
0.0
 11
3461.12665751507
 21
1709.597625947015
 31
0.0
  0
LINE
  5
182B
330
1B
100
AcDbEntity
  8
0
  6
Continuous
 62
     0
100
AcDbLine
 10
3436.48522898507
 20
1709.597625947015
 30
0.0
 11
3432.62284496487
 21
1709.597625947015
 31
0.0
  0
LINE
  5
182C
330
1B
100
AcDbEntity
  8
0
  6
Continuous
 62
     0
100
AcDbLine
 10
3420.302130699871
 20
1709.597625947015
 30
0.0
 11
3420.00594325007
 21
1709.597625947015
 31
0.0
  0
LINE
  5
182D
330
1B
100
AcDbEntity
  8
0
  6
Continuous
 62
     0
100
AcDbLine
 10
3476.123581340271
 20
1711.529477599615
 30
0.0
 11
3476.09479769807
 21
1711.529477599615
 31
0.0
  0
LINE
  5
182E
330
1B
100
AcDbEntity
  8
0
  6
Continuous
 62
     0
100
AcDbLine
 10
3463.536162799071
 20
1711.529477599615
 30
0.0
 11
3461.36459746427
 21
1711.529477599615
 31
0.0
  0
LINE
  5
182F
330
1B
100
AcDbEntity
  8
0
  6
Continuous
 62
     0
100
AcDbLine
 10
3436.247291196671
 20
1711.529477599615
 30
0.0
 11
3434.075725108471
 21
1711.529477599615
 31
0.0
  0
LINE
  5
1830
330
1B
100
AcDbEntity
  8
0
  6
Continuous
 62
     0
100
AcDbLine
 10
3421.51708880287
 20
1711.529477599615
 30
0.0
 11
3421.488305159871
 21
1711.529477599615
 31
0.0
  0
LINE
  5
1831
330
1B
100
AcDbEntity
  8
0
  6
Continuous
 62
     0
100
AcDbLine
 10
3421.488305159871
 20
1711.529477599615
 30
0.0
 11
3423.50594325007
 21
1712.070102096415
 31
0.0
  0
ARC
  5
1832
330
1B
100
AcDbEntity
  8
0
  6
Continuous
 62
     0
100
AcDbCircle
 10
3472.44025782507
 20
1679.470102096415
 30
0.0
 40
0.4
100
AcDbArc
 50
270.0000000000004
 51
314.9999999916998
  0
ARC
  5
1833
330
1B
100
AcDbEntity
  8
0
  6
Continuous
 62
     0
100
AcDbCircle
 10
3425.171628674871
 20
1679.470102096415
 30
0.0
 40
0.4
100
AcDbArc
 50
225.0000000064017
 51
270.0000000000004
  0
ARC
  5
1834
330
1B
100
AcDbEntity
  8
0
  6
Continuous
 62
     0
100
AcDbCircle
 10
3474.405943250071
 20
1681.435787521415
 30
0.0
 40
0.4
100
AcDbArc
 50
314.9999999997991
 51
0.0
  0
ARC
  5
1835
330
1B
100
AcDbEntity
  8
0
  6
Continuous
 62
     0
100
AcDbCircle
 10
3423.205943250071
 20
1681.435787521415
 30
0.0
 40
0.4
100
AcDbArc
 50
180.0
 51
225.0000000002018
  0
ARC
  5
1836
330
1B
100
AcDbEntity
  8
0
  6
Continuous
 62
     0
100
AcDbCircle
 10
3475.60594325007
 20
1709.597625947015
 30
0.0
 40
2.0
100
AcDbArc
 50
0.0
 51
75.00000000000044
  0
ARC
  5
1837
330
1B
100
AcDbEntity
  8
0
  6
Continuous
 62
     0
100
AcDbCircle
 10
3422.00594325007
 20
1709.597625947015
 30
0.0
 40
2.0
100
AcDbArc
 50
105.0
 51
180.0
  0
ARC
  5
1838
330
1B
100
AcDbEntity
  8
0
  6
Continuous
 62
     0
100
AcDbCircle
 10
3473.30594325007
 20
1699.070102096415
 30
0.0
 40
1.0
100
AcDbArc
 50
90.0
 51
180.0
  0
ARC
  5
1839
330
1B
100
AcDbEntity
  8
0
  6
Continuous
 62
     0
100
AcDbCircle
 10
3424.30594325007
 20
1699.070102096415
 30
0.0
 40
1.0
100
AcDbArc
 50
0.0
 51
90.0
  0
ARC
  5
183A
330
1B
100
AcDbEntity
  8
0
  6
Continuous
 62
     0
100
AcDbCircle
 10
3473.30594325007
 20
1693.084315658815
 30
0.0
 40
1.0
100
AcDbArc
 50
180.0
 51
225.0000000004992
  0
ARC
  5
183B
330
1B
100
AcDbEntity
  8
0
  6
Continuous
 62
     0
100
AcDbCircle
 10
3424.30594325007
 20
1693.084315658815
 30
0.0
 40
1.0
100
AcDbArc
 50
314.9999999994006
 51
0.0
  0
SPLINE
  5
183C
330
1B
100
AcDbEntity
  8
0
  6
Continuous
 62
     0
100
AcDbSpline
210
0.0
220
0.0
230
1.0
 70
     8
 71
     3
 72
    10
 73
     6
 74
     4
 42
0.0000000001
 43
0.0000000001
 44
0.0000000001
 40
0.0
 40
0.0
 40
0.0
 40
0.0
 40
0.9356392924635746
 40
1.855790929782433
 40
2.76054037748077
 40
2.76054037748077
 40
2.76054037748077
 40
2.76054037748077
 10
3477.309755800071
 20
1709.597625948015
 30
0.0
 10
3477.006319409131
 20
1709.669753181814
 30
0.0
 10
3476.404469415647
 20
1709.812813725929
 30
0.0
 10
3475.50209109477
 20
1709.994454965952
 30
0.0
 10
3474.901393422034
 20
1710.090589075719
 30
0.0
 10
3474.603579533871
 20
1710.138250444015
 30
0.0
 11
3477.309755800071
 21
1709.597625948015
 31
0.0
 11
3476.398231698271
 21
1709.808682095615
 31
0.0
 11
3475.49599733007
 21
1709.989381239215
 31
0.0
 11
3474.603579533871
 21
1710.138250444015
 31
0.0
  0
SPLINE
  5
183D
330
1B
100
AcDbEntity
  8
0
  6
Continuous
 62
     0
100
AcDbSpline
210
0.0
220
0.0
230
1.0
 70
     8
 71
     3
 72
    11
 73
     7
 74
     5
 42
0.0000000001
 43
0.0000000001
 44
0.0000000001
 40
0.0
 40
0.0
 40
0.0
 40
0.0
 40
1.756137102782239
 40
3.483978265283529
 40
5.201326719778296
 40
6.933210354502325
 40
6.933210354502325
 40
6.933210354502325
 40
6.933210354502325
 10
3474.603579533871
 20
1710.138250444015
 30
0.0
 10
3474.022759248516
 20
1710.213509428925
 30
0.0
 10
3472.870477204587
 20
1710.362814780584
 30
0.0
 10
3471.135491892661
 20
1710.421196078882
 30
0.0
 10
3469.408725086214
 20
1710.360731301664
 30
0.0
 10
3468.267989262649
 20
1710.212618780283
 30
0.0
 10
3467.695217801271
 20
1710.138250444015
 30
0.0
 11
3474.603579533871
 21
1710.138250444015
 31
0.0
 11
3472.85861490867
 21
1710.336028047815
 31
0.0
 11
3471.13201337067
 21
1710.401466658815
 31
0.0
 11
3469.41598394607
 21
1710.334170833815
 31
0.0
 11
3467.695217801271
 21
1710.138250444015
 31
0.0
  0
SPLINE
  5
183E
330
1B
100
AcDbEntity
  8
0
  6
Continuous
 62
     0
100
AcDbSpline
210
0.0
220
0.0
230
1.0
 70
     8
 71
     3
 72
     9
 73
     5
 74
     3
 42
0.0000000001
 43
0.0000000001
 44
0.0000000001
 40
0.0
 40
0.0
 40
0.0
 40
0.0
 40
1.36197704538744
 40
2.760401168772992
 40
2.760401168772992
 40
2.760401168772992
 40
2.760401168772992
 10
3467.695217801271
 20
1710.138250444015
 30
0.0
 10
3467.247021152492
 20
1710.064991095492
 30
0.0
 10
3466.338633924293
 20
1709.916511947498
 30
0.0
 10
3465.442848180275
 20
1709.704852830789
 30
0.0
 10
3464.989041535071
 20
1709.597625947215
 30
0.0
 11
3467.695217801271
 21
1710.138250444015
 31
0.0
 11
3466.35369558307
 21
1709.903091752415
 31
0.0
 11
3464.989041535071
 21
1709.597625947215
 31
0.0
  0
SPLINE
  5
183F
330
1B
100
AcDbEntity
  8
0
  6
Continuous
 62
     0
100
AcDbSpline
210
0.0
220
0.0
230
1.0
 70
     8
 71
     3
 72
    12
 73
     8
 74
     6
 42
0.0000000001
 43
0.0000000001
 44
0.0000000001
 40
0.0
 40
0.0
 40
0.0
 40
0.0
 40
0.5333908302641834
 40
1.065066568491878
 40
1.585400896368011
 40
2.08770415336009
 40
2.569317245968065
 40
2.569317245968065
 40
2.569317245968065
 40
2.569317245968065
 10
3464.989041535071
 20
1709.597625947015
 30
0.0
 10
3464.966086056794
 20
1709.774677122778
 30
0.0
 10
3464.920248912452
 20
1710.128210174937
 30
0.0
 10
3464.70265377013
 20
1710.618157082123
 30
0.0
 10
3464.390825928197
 20
1711.035105903964
 30
0.0
 10
3463.998386484502
 20
1711.362294837167
 30
0.0
 10
3463.688027111132
 20
1711.474536767357
 30
0.0
 10
3463.536110601471
 20
1711.529477599615
 30
0.0
 11
3464.989041535071
 21
1709.597625947015
 31
0.0
 11
3464.89500862307
 21
1710.122662697415
 31
0.0
 11
3464.68406895907
 21
1710.610703217015
 31
0.0
 11
3464.37125281967
 21
1711.026508310415
 31
0.0
 11
3463.97900137947
 21
1711.340271548615
 31
0.0
 11
3463.536110601471
 21
1711.529477599615
 31
0.0
  0
SPLINE
  5
1840
330
1B
100
AcDbEntity
  8
0
  6
Continuous
 62
     0
100
AcDbSpline
210
0.0
220
0.0
230
1.0
 70
     8
 71
     3
 72
     9
 73
     5
 74
     3
 42
0.0000000001
 43
0.0000000001
 44
0.0000000001
 40
0.0
 40
0.0
 40
0.0
 40
0.0
 40
1.399291230403227
 40
2.838087538587372
 40
2.838087538587372
 40
2.838087538587372
 40
2.838087538587372
 10
3466.321536085671
 20
1712.070102096415
 30
0.0
 10
3465.860729516426
 20
1711.996939082817
 30
0.0
 10
3464.926106792108
 20
1711.848547502376
 30
0.0
 10
3464.003757046989
 20
1711.636816637707
 30
0.0
 10
3463.536162799071
 20
1711.529477599615
 30
0.0
 11
3466.321536085671
 21
1712.070102096415
 31
0.0
 11
3464.942099799671
 21
1711.835215995615
 31
0.0
 11
3463.536162799071
 21
1711.529477599615
 31
0.0
  0
SPLINE
  5
1841
330
1B
100
AcDbEntity
  8
0
  6
Continuous
 62
     0
100
AcDbSpline
210
0.0
220
0.0
230
1.0
 70
     8
 71
     3
 72
     9
 73
     5
 74
     3
 42
0.0000000001
 43
0.0000000001
 44
0.0000000001
 40
0.0
 40
0.0
 40
0.0
 40
0.0
 40
2.743933187971886
 40
5.439678939618728
 40
5.439678939618728
 40
5.439678939618728
 40
5.439678939618728
 10
3461.12665751507
 20
1709.597625947215
 30
0.0
 10
3460.218239860134
 20
1709.704884206237
 30
0.0
 10
3458.417357678457
 20
1709.917517114086
 30
0.0
 10
3456.609985675157
 20
1710.065108480445
 30
0.0
 10
3455.714304982671
 20
1710.138250444015
 30
0.0
 11
3461.12665751507
 21
1709.597625947215
 31
0.0
 11
3458.399753222471
 21
1709.902850977415
 31
0.0
 11
3455.714304982671
 21
1710.138250444015
 31
0.0
  0
SPLINE
  5
1842
330
1B
100
AcDbEntity
  8
0
  6
Continuous
 62
     0
100
AcDbSpline
210
0.0
220
0.0
230
1.0
 70
     8
 71
     3
 72
     9
 73
     5
 74
     3
 42
0.0000000001
 43
0.0000000001
 44
0.0000000001
 40
0.0
 40
0.0
 40
0.0
 40
0.0
 40
2.790847009493874
 40
5.53286552755557
 40
5.53286552755557
 40
5.53286552755557
 40
5.53286552755557
 10
3461.36459746427
 20
1711.529477599615
 30
0.0
 10
3460.440451068306
 20
1711.636873286977
 30
0.0
 10
3458.608327086145
 20
1711.849785673215
 30
0.0
 10
3456.769768773615
 20
1711.997096636892
 30
0.0
 10
3455.85860241427
 20
1712.070102096415
 30
0.0
 11
3461.36459746427
 21
1711.529477599615
 31
0.0
 11
3458.59052117647
 21
1711.834973556815
 31
0.0
 11
3455.85860241427
 21
1712.070102096415
 31
0.0
  0
SPLINE
  5
1843
330
1B
100
AcDbEntity
  8
0
  6
Continuous
 62
     0
100
AcDbSpline
210
0.0
220
0.0
230
1.0
 70
     8
 71
     3
 72
    11
 73
     7
 74
     5
 42
0.0000000001
 43
0.0000000001
 44
0.0000000001
 40
0.0
 40
0.0
 40
0.0
 40
0.0
 40
3.473506368718393
 40
6.914580222652051
 40
10.35565725050584
 40
13.82917511472454
 40
13.82917511472454
 40
13.82917511472454
 40
13.82917511472454
 10
3455.714304982671
 20
1710.138250444015
 30
0.0
 10
3454.558745794354
 20
1710.213129902781
 30
0.0
 10
3452.258417002215
 20
1710.362189662489
 30
0.0
 10
3448.805949530104
 20
1710.421023200698
 30
0.0
 10
3445.353478212358
 20
1710.362190118229
 30
0.0
 10
3443.053144533411
 20
1710.213130114378
 30
0.0
 10
3441.897581517471
 20
1710.138250444015
 30
0.0
 11
3455.714304982671
 21
1710.138250444015
 31
0.0
 11
3452.246385926871
 21
1710.335186768615
 31
0.0
 11
3448.80595058607
 21
1710.401473524415
 31
0.0
 11
3445.365512062271
 21
1710.335187209215
 31
0.0
 11
3441.897581517471
 21
1710.138250444015
 31
0.0
  0
SPLINE
  5
1844
330
1B
100
AcDbEntity
  8
0
  6
Continuous
 62
     0
100
AcDbSpline
210
0.0
220
0.0
230
1.0
 70
     8
 71
     3
 72
     9
 73
     5
 74
     3
 42
0.0000000001
 43
0.0000000001
 44
0.0000000001
 40
0.0
 40
0.0
 40
0.0
 40
0.0
 40
2.695780945439068
 40
5.439678939338962
 40
5.439678939338962
 40
5.439678939338962
 40
5.439678939338962
 10
3441.897581517471
 20
1710.138250444015
 30
0.0
 10
3441.001889136735
 20
1710.065107448137
 30
0.0
 10
3439.194517143899
 20
1709.917515925573
 30
0.0
 10
3437.393634979729
 20
1709.704882893297
 30
0.0
 10
3436.48522898507
 20
1709.597625947215
 30
0.0
 11
3441.897581517471
 21
1710.138250444015
 31
0.0
 11
3439.21209825627
 21
1709.902847471215
 31
0.0
 11
3436.48522898507
 21
1709.597625947215
 31
0.0
  0
SPLINE
  5
1845
330
1B
100
AcDbEntity
  8
0
  6
Continuous
 62
     0
100
AcDbSpline
210
0.0
220
0.0
230
1.0
 70
     8
 71
     3
 72
     9
 73
     5
 74
     3
 42
0.0000000001
 43
0.0000000001
 44
0.0000000001
 40
0.0
 40
0.0
 40
0.0
 40
0.0
 40
2.742055125416539
 40
5.53286337943052
 40
5.53286337943052
 40
5.53286337943052
 40
5.53286337943052
 10
3441.753284085871
 20
1712.070102096415
 30
0.0
 10
3440.84210556491
 20
1711.9970956031
 30
0.0
 10
3439.003547972094
 20
1711.8497845773
 30
0.0
 10
3437.17142473987
 20
1711.636871955917
 30
0.0
 10
3436.247291196671
 20
1711.529477599615
 30
0.0
 11
3441.753284085871
 21
1712.070102096415
 31
0.0
 11
3439.02132888967
 21
1711.834969970215
 31
0.0
 11
3436.247291196671
 21
1711.529477599615
 31
0.0
  0
SPLINE
  5
1846
330
1B
100
AcDbEntity
  8
0
  6
Continuous
 62
     0
100
AcDbSpline
210
0.0
220
0.0
230
1.0
 70
     8
 71
     3
 72
     9
 73
     5
 74
     3
 42
0.0000000001
 43
0.0000000001
 44
0.0000000001
 40
0.0
 40
0.0
 40
0.0
 40
0.0
 40
1.398484515511653
 40
2.760401170974109
 40
2.760401170974109
 40
2.760401170974109
 40
2.760401170974109
 10
3432.62284496487
 20
1709.597625947215
 30
0.0
 10
3432.169018665656
 20
1709.704857263773
 30
0.0
 10
3431.273232810415
 20
1709.916515990422
 30
0.0
 10
3430.364845509817
 20
1710.064994606364
 30
0.0
 10
3429.916668698671
 20
1710.138250444015
 30
0.0
 11
3432.62284496487
 21
1709.597625947215
 31
0.0
 11
3431.258131685471
 21
1709.903103614415
 31
0.0
 11
3429.916668698671
 21
1710.138250444015
 31
0.0
  0
SPLINE
  5
1847
330
1B
100
AcDbEntity
  8
0
  6
Continuous
 62
     0
100
AcDbSpline
210
0.0
220
0.0
230
1.0
 70
     8
 71
     3
 72
     9
 73
     5
 74
     3
 42
0.0000000001
 43
0.0000000001
 44
0.0000000001
 40
0.0
 40
0.0
 40
0.0
 40
0.0
 40
1.438860588322463
 40
2.838088916140324
 40
2.838088916140324
 40
2.838088916140324
 40
2.838088916140324
 10
3434.075725108471
 20
1711.529477599615
 30
0.0
 10
3433.608109888702
 20
1711.636821112218
 30
0.0
 10
3432.685759535222
 20
1711.84855144649
 30
0.0
 10
3431.751136298009
 20
1711.99694261187
 30
0.0
 10
3431.290350414271
 20
1712.070102096415
 30
0.0
 11
3434.075725108471
 21
1711.529477599615
 31
0.0
 11
3432.66972493807
 21
1711.835228010015
 31
0.0
 11
3431.290350414271
 21
1712.070102096415
 31
0.0
  0
SPLINE
  5
1848
330
1B
100
AcDbEntity
  8
0
  6
Continuous
 62
     0
100
AcDbSpline
210
0.0
220
0.0
230
1.0
 70
     8
 71
     3
 72
    12
 73
     8
 74
     6
 42
0.0000000001
 43
0.0000000001
 44
0.0000000001
 40
0.0
 40
0.0
 40
0.0
 40
0.0
 40
0.5335618727406968
 40
1.06494301493454
 40
1.584925430679051
 40
2.087012599253569
 40
2.569316497499345
 40
2.569316497499345
 40
2.569316497499345
 40
2.569316497499345
 10
3432.62284496487
 20
1709.597625947015
 30
0.0
 10
3432.645811058431
 20
1709.774734072708
 30
0.0
 10
3432.691649380407
 20
1710.128226462213
 30
0.0
 10
3432.909181599184
 20
1710.618018955293
 30
0.0
 10
3433.220776692496
 20
1711.034771951682
 30
0.0
 10
3433.613143178666
 20
1711.362105719897
 30
0.0
 10
3433.923645040089
 20
1711.474439495601
 30
0.0
 10
3434.075775898671
 20
1711.529477599615
 30
0.0
 11
3432.62284496487
 21
1709.597625947015
 31
0.0
 11
3432.71692755047
 21
1710.122827564615
 31
0.0
 11
3432.927755172271
 21
1710.610595575215
 31
0.0
 11
3433.24030084647
 21
1711.026163757615
 31
0.0
 11
3433.632287521071
 21
1711.339912019415
 31
0.0
 11
3434.075775898671
 21
1711.529477599615
 31
0.0
  0
SPLINE
  5
1849
330
1B
100
AcDbEntity
  8
0
  6
Continuous
 62
     0
100
AcDbSpline
210
0.0
220
0.0
230
1.0
 70
     8
 71
     3
 72
    11
 73
     7
 74
     5
 42
0.0000000001
 43
0.0000000001
 44
0.0000000001
 40
0.0
 40
0.0
 40
0.0
 40
0.0
 40
1.731909568038522
 40
3.44923742947972
 40
5.177077550651543
 40
6.933210356710546
 40
6.933210356710546
 40
6.933210356710546
 40
6.933210356710546
 10
3429.916668698671
 20
1710.138250444015
 30
0.0
 10
3429.34388863213
 20
1710.212619754486
 30
0.0
 10
3428.20315098576
 20
1710.360732227572
 30
0.0
 10
3426.476382740842
 20
1710.421195822921
 30
0.0
 10
3424.74140609437
 20
1710.362814440106
 30
0.0
 10
3423.589125825511
 20
1710.213509269059
 30
0.0
 10
3423.00830696607
 20
1710.138250444015
 30
0.0
 11
3429.916668698671
 21
1710.138250444015
 31
0.0
 11
3428.19587668227
 21
1710.334172847415
 31
0.0
 11
3426.47986778787
 21
1710.401466666015
 31
0.0
 11
3424.753267304871
 21
1710.336027714015
 31
0.0
 11
3423.00830696607
 21
1710.138250444015
 31
0.0
  0
SPLINE
  5
184A
330
1B
100
AcDbEntity
  8
0
  6
Continuous
 62
     0
100
AcDbSpline
210
0.0
220
0.0
230
1.0
 70
     8
 71
     3
 72
    10
 73
     6
 74
     4
 42
0.0000000001
 43
0.0000000001
 44
0.0000000001
 40
0.0
 40
0.0
 40
0.0
 40
0.0
 40
0.9048196316623113
 40
1.82498031217715
 40
2.760540378414421
 40
2.760540378414421
 40
2.760540378414421
 40
2.760540378414421
 10
3423.00830696607
 20
1710.138250444015
 30
0.0
 10
3422.710470002281
 20
1710.0905851835
 30
0.0
 10
3422.109746304282
 20
1709.994446506828
 30
0.0
 10
3421.207368479609
 20
1709.812802781531
 30
0.0
 10
3420.605541346779
 20
1709.669747266544
 30
0.0
 10
3420.302130699871
 20
1709.597625948015
 30
0.0
 11
3423.00830696607
 21
1710.138250444015
 31
0.0
 11
3422.115820124871
 21
1709.989368597815
 31
0.0
 11
3421.21357735027
 21
1709.808665378015
 31
0.0
 11
3420.302130699871
 21
1709.597625948015
 31
0.0
  0
CIRCLE
  5
188E
330
1B
100
AcDbEntity
  8
0
100
AcDbCircle
 10
3597.517268115471
 20
1754.070102096514
 30
0.0
 40
33.25
  0
CIRCLE
  5
5136
330
1B
100
AcDbEntity
  8
0
  6
Continuous
100
AcDbCircle
 10
3597.517268115471
 20
1754.070102096514
 30
0.0
 40
38.0
  0
ENDSEC
  0
SECTION
  2
OBJECTS
  0
DICTIONARY
  5
412
330
0
100
AcDbDictionary
281
     1
  3
ACAD_COLOR
350
41D
  3
ACAD_GROUP
350
413
  3
ACAD_LAYOUT
350
41E
  3
ACAD_MATERIAL
350
41C
  3
ACAD_MLINESTYLE
350
414
  3
ACAD_PLOTSETTINGS
350
41F
  3
ACAD_PLOTSTYLENAME
350
41A
  3
ACDBHEADERROUNDTRIPXREC
350
2ADEE
  3
AcDbVariableDictionary
350
2ADE6
  0
DICTIONARY
  5
41D
102
{ACAD_REACTORS
330
412
102
}
330
412
100
AcDbDictionary
281
     1
  0
DICTIONARY
  5
413
102
{ACAD_REACTORS
330
412
102
}
330
412
100
AcDbDictionary
281
     1
  0
DICTIONARY
  5
41E
102
{ACAD_REACTORS
330
412
102
}
330
412
100
AcDbDictionary
281
     1
  3
Layout1
350
421
  3
Model
350
420
  0
DICTIONARY
  5
41C
102
{ACAD_REACTORS
330
412
102
}
330
412
100
AcDbDictionary
281
     1
  0
DICTIONARY
  5
414
102
{ACAD_REACTORS
330
412
102
}
330
412
100
AcDbDictionary
281
     1
  3
STANDARD
350
415
  0
DICTIONARY
  5
41F
102
{ACAD_REACTORS
330
412
102
}
330
412
100
AcDbDictionary
281
     1
  0
ACDBDICTIONARYWDFLT
  5
41A
102
{ACAD_REACTORS
330
412
102
}
330
412
100
AcDbDictionary
281
     1
  3
Normal
350
41B
100
AcDbDictionaryWithDefault
340
41B
  0
DICTIONARY
  5
2ADEE
102
{ACAD_REACTORS
330
412
102
}
330
412
100
AcDbDictionary
281
     1
  3
COLORDICT
350
2ADEF
  3
MATERIALDICT
350
2ADF0
  0
DICTIONARY
  5
2ADE6
102
{ACAD_REACTORS
330
412
102
}
330
412
100
AcDbDictionary
281
     1
  0
LAYOUT
  5
421
102
{ACAD_REACTORS
330
41E
102
}
330
41E
100
AcDbPlotSettings
  1

  2
\\alderaan\HP LaserJet 4050 Ricerca
  4

  6

 40
0.0
 41
0.0
 42
0.0
 43
0.0
 44
0.0
 45
0.0
 46
0.0
 47
0.0
 48
0.0
 49
0.0
140
0.0
141
0.0
142
1.0
143
1.0
 70
   688
 72
     0
 73
     0
 74
     5
  7

 75
    16
147
1.0
148
0.0
149
0.0
100
AcDbLayout
  1
Layout1
 70
     0
 71
     1
 10
0.0
 20
0.0
 11
12.0
 21
9.0
 12
0.0
 22
0.0
 32
0.0
 14
1.000000000000000E+20
 24
1.000000000000000E+20
 34
1.000000000000000E+20
 15
-1.000000000000000E+20
 25
-1.000000000000000E+20
 35
-1.000000000000000E+20
146
0.0
 13
0.0
 23
0.0
 33
0.0
 16
1.0
 26
0.0
 36
0.0
 17
0.0
 27
1.0
 37
0.0
 76
     0
330
1C
  0
LAYOUT
  5
420
102
{ACAD_REACTORS
330
41E
102
}
330
41E
100
AcDbPlotSettings
  1

  2
\\alderaan\HP LaserJet 4050 Ricerca
  4
A4
  6

 40
5.027083396911621
 41
5.069430828094482
 42
5.365737915039062
 43
5.365753173828125
 44
209.8886566162109
 45
297.0530090332031
 46
49.784
 47
-1.016
 48
-230.9841981638419
 49
1816.890201395042
140
904.7601850852935
141
2209.683276104576
142
1.0
143
100.0
 70
 11956
 72
     0
 73
     1
 74
     4
  7

 75
    26
147
0.01
148
5866.998633361586
149
-46149.01111543406
100
AcDbLayout
  1
Model
 70
     1
 71
     0
 10
0.0
 20
0.0
 11
12.0
 21
9.0
 12
0.0
 22
0.0
 32
0.0
 14
0.0
 24
0.0
 34
0.0
 15
0.0
 25
0.0
 35
0.0
146
0.0
 13
0.0
 23
0.0
 33
0.0
 16
1.0
 26
0.0
 36
0.0
 17
0.0
 27
1.0
 37
0.0
 76
     0
330
1B
  0
MLINESTYLE
  5
415
102
{ACAD_REACTORS
330
414
102
}
330
414
100
AcDbMlineStyle
  2
STANDARD
 70
     0
  3

 62
   256
 51
90.00000000000019
 52
90.00000000000019
 71
     2
 49
0.5
 62
   256
  6
BYLAYER
 49
-0.5
 62
   256
  6
BYLAYER
  0
ACDBPLACEHOLDER
  5
41B
102
{ACAD_REACTORS
330
41A
102
}
330
41A
  0
XRECORD
  5
2ADEF
102
{ACAD_REACTORS
330
2ADEE
102
}
330
2ADEE
100
AcDbXrecord
280
     1
340
41D
  0
XRECORD
  5
2ADF0
102
{ACAD_REACTORS
330
2ADEE
102
}
330
2ADEE
100
AcDbXrecord
280
     1
340
41C
  0
ENDSEC
  0
EOF
