  0
SECTION
  2
HEADER
  9
$ACADVER
  1
AC1015
  9
$ACADMAINTVER
 70
     6
  9
$DWGCODEPAGE
  3
ANSI_1252
  9
$INSBASE
 10
0.0
 20
0.0
 30
0.0
  9
$EXTMIN
 10
1669.884223431374
 20
453.077817813306
 30
0.0
  9
$EXTMAX
 10
2747.116518310379
 20
973.4747315265694
 30
0.0
  9
$LIMMIN
 10
0.0
 20
0.0
  9
$LIMMAX
 10
594.0
 20
420.0
  9
$ORTHOMODE
 70
     0
  9
$REGENMODE
 70
     1
  9
$FILLMODE
 70
     1
  9
$QTEXTMODE
 70
     0
  9
$MIRRTEXT
 70
     1
  9
$LTSCALE
 40
32.67
  9
$ATTMODE
 70
     1
  9
$TEXTSIZE
 40
0.2
  9
$TRACEWID
 40
0.05
  9
$TEXTSTYLE
  7
STANDARD
  9
$CLAYER
  8
0
  9
$CELTYPE
  6
BYLAYER
  9
$CECOLOR
 62
   256
  9
$CELTSCALE
 40
1.0
  9
$DISPSILH
 70
     0
  9
$DIMSCALE
 40
2.0
  9
$DIMASZ
 40
3.0
  9
$DIMEXO
 40
3.712499999999999
  9
$DIMDLI
 40
22.572
  9
$DIMRND
 40
0.0
  9
$DIMDLE
 40
0.0
  9
$DIMEXE
 40
10.692
  9
$DIMTP
 40
0.003
  9
$DIMTM
 40
0.003
  9
$DIMTXT
 40
1.5
  9
$DIMCEN
 40
5.346
  9
$DIMTSZ
 40
0.0
  9
$DIMTOL
 70
     1
  9
$DIMLIM
 70
     0
  9
$DIMTIH
 70
     1
  9
$DIMTOH
 70
     1
  9
$DIMSE1
 70
     0
  9
$DIMSE2
 70
     0
  9
$DIMTAD
 70
     0
  9
$DIMZIN
 70
     0
  9
$DIMBLK
  1

  9
$DIMASO
 70
     1
  9
$DIMSHO
 70
     1
  9
$DIMPOST
  1

  9
$DIMAPOST
  1

  9
$DIMALT
 70
     0
  9
$DIMALTD
 70
     2
  9
$DIMALTF
 40
25.4
  9
$DIMLFAC
 40
0.5
  9
$DIMTOFL
 70
     0
  9
$DIMTVP
 40
0.0
  9
$DIMTIX
 70
     0
  9
$DIMSOXD
 70
     0
  9
$DIMSAH
 70
     0
  9
$DIMBLK1
  1

  9
$DIMBLK2
  1

  9
$DIMSTYLE
  2
STANDARD
  9
$DIMCLRD
 70
     0
  9
$DIMCLRE
 70
     0
  9
$DIMCLRT
 70
     0
  9
$DIMTFAC
 40
1.0
  9
$DIMGAP
 40
0.09
  9
$DIMJUST
 70
     0
  9
$DIMSD1
 70
     0
  9
$DIMSD2
 70
     0
  9
$DIMTOLJ
 70
     1
  9
$DIMTZIN
 70
     0
  9
$DIMALTZ
 70
     0
  9
$DIMALTTZ
 70
     0
  9
$DIMUPT
 70
     0
  9
$DIMDEC
 70
     4
  9
$DIMTDEC
 70
     4
  9
$DIMALTU
 70
     2
  9
$DIMALTTD
 70
     2
  9
$DIMTXSTY
  7
STANDARD
  9
$DIMAUNIT
 70
     0
  9
$DIMADEC
 70
     0
  9
$DIMALTRND
 40
0.0
  9
$DIMAZIN
 70
     0
  9
$DIMDSEP
 70
    46
  9
$DIMATFIT
 70
     3
  9
$DIMFRAC
 70
     0
  9
$DIMLDRBLK
  1

  9
$DIMLUNIT
 70
     2
  9
$DIMLWD
 70
    -2
  9
$DIMLWE
 70
    -2
  9
$DIMTMOVE
 70
     0
  9
$LUNITS
 70
     2
  9
$LUPREC
 70
     4
  9
$SKETCHINC
 40
0.1
  9
$FILLETRAD
 40
0.0
  9
$AUNITS
 70
     0
  9
$AUPREC
 70
     0
  9
$MENU
  1
acad
  9
$ELEVATION
 40
0.0
  9
$PELEVATION
 40
0.0
  9
$THICKNESS
 40
0.0
  9
$LIMCHECK
 70
     0
  9
$CHAMFERA
 40
0.0
  9
$CHAMFERB
 40
0.0
  9
$CHAMFERC
 40
0.0
  9
$CHAMFERD
 40
0.0
  9
$SKPOLY
 70
     0
  9
$TDCREATE
 40
2444972.041666667
  9
$TDUCREATE
 40
2444972.0
  9
$TDUPDATE
 40
2453410.618662141
  9
$TDUUPDATE
 40
2453410.576995475
  9
$TDINDWG
 40
0.6889155556
  9
$TDUSRTIMER
 40
0.6889155556
  9
$USRTIMER
 70
     1
  9
$ANGBASE
 50
0.0
  9
$ANGDIR
 70
     0
  9
$PDMODE
 70
     0
  9
$PDSIZE
 40
0.0
  9
$PLINEWID
 40
0.0
  9
$SPLFRAME
 70
     0
  9
$SPLINETYPE
 70
     6
  9
$SPLINESEGS
 70
     8
  9
$HANDSEED
  5
2ADF9
  9
$SURFTAB1
 70
     6
  9
$SURFTAB2
 70
     6
  9
$SURFTYPE
 70
     6
  9
$SURFU
 70
     6
  9
$SURFV
 70
     6
  9
$UCSBASE
  2

  9
$UCSNAME
  2

  9
$UCSORG
 10
0.0
 20
0.0
 30
0.0
  9
$UCSXDIR
 10
1.0
 20
0.0
 30
0.0
  9
$UCSYDIR
 10
0.0
 20
1.0
 30
0.0
  9
$UCSORTHOREF
  2

  9
$UCSORTHOVIEW
 70
     0
  9
$UCSORGTOP
 10
0.0
 20
0.0
 30
0.0
  9
$UCSORGBOTTOM
 10
0.0
 20
0.0
 30
0.0
  9
$UCSORGLEFT
 10
0.0
 20
0.0
 30
0.0
  9
$UCSORGRIGHT
 10
0.0
 20
0.0
 30
0.0
  9
$UCSORGFRONT
 10
0.0
 20
0.0
 30
0.0
  9
$UCSORGBACK
 10
0.0
 20
0.0
 30
0.0
  9
$PUCSBASE
  2

  9
$PUCSNAME
  2

  9
$PUCSORG
 10
0.0
 20
0.0
 30
0.0
  9
$PUCSXDIR
 10
1.0
 20
0.0
 30
0.0
  9
$PUCSYDIR
 10
0.0
 20
1.0
 30
0.0
  9
$PUCSORTHOREF
  2

  9
$PUCSORTHOVIEW
 70
     0
  9
$PUCSORGTOP
 10
0.0
 20
0.0
 30
0.0
  9
$PUCSORGBOTTOM
 10
0.0
 20
0.0
 30
0.0
  9
$PUCSORGLEFT
 10
0.0
 20
0.0
 30
0.0
  9
$PUCSORGRIGHT
 10
0.0
 20
0.0
 30
0.0
  9
$PUCSORGFRONT
 10
0.0
 20
0.0
 30
0.0
  9
$PUCSORGBACK
 10
0.0
 20
0.0
 30
0.0
  9
$USERI1
 70
     0
  9
$USERI2
 70
     0
  9
$USERI3
 70
     0
  9
$USERI4
 70
     0
  9
$USERI5
 70
     0
  9
$USERR1
 40
0.0
  9
$USERR2
 40
0.0
  9
$USERR3
 40
0.0
  9
$USERR4
 40
0.0
  9
$USERR5
 40
0.0
  9
$WORLDVIEW
 70
     1
  9
$SHADEDGE
 70
     3
  9
$SHADEDIF
 70
    70
  9
$TILEMODE
 70
     1
  9
$MAXACTVP
 70
    16
  9
$PINSBASE
 10
0.0
 20
0.0
 30
0.0
  9
$PLIMCHECK
 70
     0
  9
$PEXTMIN
 10
1.000000000000000E+20
 20
1.000000000000000E+20
 30
1.000000000000000E+20
  9
$PEXTMAX
 10
-1.000000000000000E+20
 20
-1.000000000000000E+20
 30
-1.000000000000000E+20
  9
$PLIMMIN
 10
0.0
 20
0.0
  9
$PLIMMAX
 10
12.0
 20
9.0
  9
$UNITMODE
 70
     0
  9
$VISRETAIN
 70
     0
  9
$PLINEGEN
 70
     1
  9
$PSLTSCALE
 70
     0
  9
$TREEDEPTH
 70
  3020
  9
$CMLSTYLE
  2
STANDARD
  9
$CMLJUST
 70
     0
  9
$CMLSCALE
 40
1.0
  9
$PROXYGRAPHICS
 70
     1
  9
$MEASUREMENT
 70
     0
  9
$CELWEIGHT
370
    -1
  9
$ENDCAPS
280
     0
  9
$JOINSTYLE
280
     0
  9
$LWDISPLAY
290
     0
  9
$INSUNITS
 70
     0
  9
$HYPERLINKBASE
  1

  9
$STYLESHEET
  1

  9
$XEDIT
290
     1
  9
$CEPSNTYPE
380
     0
  9
$PSTYLEMODE
290
     1
  9
$FINGERPRINTGUID
  2
{CA13A069-F2C0-40A5-844C-DBDF6CEA9423}
  9
$VERSIONGUID
  2
{65A19FA0-7852-40F9-B92C-C8E067528437}
  9
$EXTNAMES
290
     1
  9
$PSVPSCALE
 40
0.0
  9
$OLESTARTUP
290
     0
  0
ENDSEC
  0
SECTION
  2
CLASSES
  0
CLASS
  1
IMAGE
  2
AcDbRasterImage
  3
ISM
 90
      127
280
     0
281
     1
  0
CLASS
  1
DICTIONARYVAR
  2
AcDbDictionaryVar
  3
ObjectDBX Classes
 90
        0
280
     0
281
     0
  0
CLASS
  1
RASTERVARIABLES
  2
AcDbRasterVariables
  3
ISM
 90
        0
280
     0
281
     0
  0
CLASS
  1
IMAGEDEF
  2
AcDbRasterImageDef
  3
ISM
 90
        0
280
     0
281
     0
  0
CLASS
  1
IMAGEDEF_REACTOR
  2
AcDbRasterImageDefReactor
  3
ISM
 90
        1
280
     0
281
     0
  0
CLASS
  1
IDBUFFER
  2
AcDbIdBuffer
  3
ObjectDBX Classes
 90
        0
280
     0
281
     0
  0
CLASS
  1
SPATIAL_FILTER
  2
AcDbSpatialFilter
  3
ObjectDBX Classes
 90
        0
280
     0
281
     0
  0
CLASS
  1
SORTENTSTABLE
  2
AcDbSortentsTable
  3
ObjectDBX Classes
 90
        0
280
     0
281
     0
  0
CLASS
  1
LAYER_INDEX
  2
AcDbLayerIndex
  3
ObjectDBX Classes
 90
        0
280
     0
281
     0
  0
CLASS
  1
SPATIAL_INDEX
  2
AcDbSpatialIndex
  3
AutoCAD 2000
 90
        0
280
     0
281
     0
  0
CLASS
  1
OBJECT_PTR
  2
CAseDLPNTableRecord
  3
ASE-LPNTableRecord
 90
        1
280
     0
281
     0
  0
CLASS
  1
PLOTSETTINGS
  2
AcDbPlotSettings
  3
ObjectDBX Classes
 90
        0
280
     0
281
     0
  0
CLASS
  1
ACDBDICTIONARYWDFLT
  2
AcDbDictionaryWithDefault
  3
ObjectDBX Classes
 90
        0
280
     0
281
     0
  0
CLASS
  1
WIPEOUT
  2
AcDbWipeout
  3
WipeOut|AutoCAD Express Tool|expresstools@autodesk.com
 90
      127
280
     0
281
     1
  0
CLASS
  1
WIPEOUTVARIABLES
  2
AcDbWipeoutVariables
  3
WipeOut|AutoCAD Express Tool|expresstools@autodesk.com
 90
        0
280
     0
281
     0
  0
CLASS
  1
RTEXT
  2
RText
  3
RText|AutoCAD Express Tool|expresstools@autodesk.com
 90
        0
280
     0
281
     1
  0
CLASS
  1
ARCALIGNEDTEXT
  2
AcDbArcAlignedText
  3
ATEXT|AutoCAD Express Tool|expresstools@autodesk.com
 90
        0
280
     0
281
     1
  0
CLASS
  1
ACDBPLACEHOLDER
  2
AcDbPlaceHolder
  3
ObjectDBX Classes
 90
        0
280
     0
281
     0
  0
CLASS
  1
LAYOUT
  2
AcDbLayout
  3
ObjectDBX Classes
 90
        0
280
     0
281
     0
  0
ENDSEC
  0
SECTION
  2
TABLES
  0
TABLE
  2
VPORT
  5
8
330
0
100
AcDbSymbolTable
 70
     1
  0
VPORT
  5
2ADED
330
8
100
AcDbSymbolTableRecord
100
AcDbViewportTableRecord
  2
*Active
 70
     0
 10
0.0
 20
0.0
 11
1.0
 21
1.0
 12
2123.711403690904
 22
678.4553673676992
 13
0.0
 23
0.0
 14
1.0
 24
1.0
 15
0.0
 25
0.0
 16
0.0
 26
0.0
 36
1.0
 17
0.0
 27
0.0
 37
0.0
 40
397.6001451686311
 41
1.888667992047713
 42
50.0
 43
0.0
 44
0.0
 50
0.0
 51
0.0
 71
     0
 72
   100
 73
     1
 74
     1
 75
     0
 76
     0
 77
     0
 78
     0
281
     0
 65
     1
110
0.0
120
0.0
130
0.0
111
1.0
121
0.0
131
0.0
112
0.0
122
1.0
132
0.0
 79
     0
146
0.0
  0
ENDTAB
  0
TABLE
  2
LTYPE
  5
5
330
0
100
AcDbSymbolTable
 70
     2
  0
LTYPE
  5
14
330
5
100
AcDbSymbolTableRecord
100
AcDbLinetypeTableRecord
  2
BYBLOCK
 70
     0
  3

 72
    65
 73
     0
 40
0.0
  0
LTYPE
  5
15
330
5
100
AcDbSymbolTableRecord
100
AcDbLinetypeTableRecord
  2
BYLAYER
 70
     0
  3

 72
    65
 73
     0
 40
0.0
  0
LTYPE
  5
16
330
5
100
AcDbSymbolTableRecord
100
AcDbLinetypeTableRecord
  2
CONTINUOUS
 70
     0
  3
Solid line
 72
    65
 73
     0
 40
0.0
  0
LTYPE
  5
1F5
330
5
100
AcDbSymbolTableRecord
100
AcDbLinetypeTableRecord
  2
CENTER
 70
     0
  3
____ _ ____ _ ____ _ ____ _ ____ _ ____ _ ____
 72
    65
 73
     4
 40
0.6
 49
0.375
 74
     0
 49
-0.075
 74
     0
 49
0.075
 74
     0
 49
-0.075
 74
     0
  0
ENDTAB
  0
TABLE
  2
LAYER
  5
2
330
0
100
AcDbSymbolTable
 70
     3
  0
LAYER
  5
10
330
2
100
AcDbSymbolTableRecord
100
AcDbLayerTableRecord
  2
0
 70
     0
 62
     7
  6
CONTINUOUS
370
    -3
390
41B
  0
LAYER
  5
1FA
330
2
100
AcDbSymbolTableRecord
100
AcDbLayerTableRecord
  2
DEFAULT_1
 70
     0
 62
     7
  6
CENTER
370
    -3
390
41B
  0
LAYER
  5
424
330
2
100
AcDbSymbolTableRecord
100
AcDbLayerTableRecord
  2
Defpoints
 70
     0
 62
     7
  6
CONTINUOUS
290
     0
370
    -3
390
41B
  0
ENDTAB
  0
TABLE
  2
STYLE
  5
3
330
0
100
AcDbSymbolTable
 70
     1
  0
STYLE
  5
11
330
3
100
AcDbSymbolTableRecord
100
AcDbTextStyleTableRecord
  2
STANDARD
 70
     0
 40
10.0
 41
1.0
 50
0.0
 71
     0
 42
0.2
  3
VERDANA.TTF
  4

1001
ACAD
1000
Verdana
1071
       34
  0
ENDTAB
  0
TABLE
  2
VIEW
  5
6
330
0
100
AcDbSymbolTable
 70
     0
  0
ENDTAB
  0
TABLE
  2
UCS
  5
7
330
0
100
AcDbSymbolTable
 70
     0
  0
ENDTAB
  0
TABLE
  2
APPID
  5
9
330
0
100
AcDbSymbolTable
 70
     1
  0
APPID
  5
20E
330
9
100
AcDbSymbolTableRecord
100
AcDbRegAppTableRecord
  2
ACAD
 70
     0
  0
ENDTAB
  0
TABLE
  2
DIMSTYLE
  5
A
330
0
100
AcDbSymbolTable
 70
     1
100
AcDbDimStyleTable
  0
DIMSTYLE
105
20F
330
A
100
AcDbSymbolTableRecord
100
AcDbDimStyleTableRecord
  2
STANDARD
 70
     0
 41
3.0
 47
0.003
 48
0.003
 71
     1
 73
     0
 74
     0
 77
     1
 78
     8
140
1.5
271
     3
272
     3
284
     8
340
11
  0
ENDTAB
  0
TABLE
  2
BLOCK_RECORD
  5
1
330
0
100
AcDbSymbolTable
 70
     0
  0
BLOCK_RECORD
  5
1B
330
1
100
AcDbSymbolTableRecord
100
AcDbBlockTableRecord
  2
*MODEL_SPACE
340
420
  0
BLOCK_RECORD
  5
1C
330
1
100
AcDbSymbolTableRecord
100
AcDbBlockTableRecord
  2
*PAPER_SPACE
340
421
  0
ENDTAB
  0
ENDSEC
  0
SECTION
  2
BLOCKS
  0
BLOCK
  5
1E
330
1B
100
AcDbEntity
  8
0
100
AcDbBlockBegin
  2
*MODEL_SPACE
 70
     0
 71
     0
 10
0.0
 20
0.0
 30
0.0
  3
*MODEL_SPACE
  1

  0
ENDBLK
  5
1F
330
1B
100
AcDbEntity
  8
0
100
AcDbBlockEnd
  0
BLOCK
  5
20
330
1C
100
AcDbEntity
 67
     1
  8
0
100
AcDbBlockBegin
  2
*PAPER_SPACE
 70
     0
 71
     0
 10
0.0
 20
0.0
 30
0.0
  3
*PAPER_SPACE
  1

  0
ENDBLK
  5
21
330
1C
100
AcDbEntity
 67
     1
  8
0
100
AcDbBlockEnd
  0
ENDSEC
  0
SECTION
  2
ENTITIES
  0
CIRCLE
  5
B24
330
1B
100
AcDbEntity
  8
0
100
AcDbCircle
 10
2363.612878855466
 20
713.2762746699376
 30
0.0
 40
33.25
  0
LINE
  5
B43
330
1B
100
AcDbEntity
  8
0
  6
Continuous
100
AcDbLine
 10
2263.612878855466
 20
750.7762746699376
 30
0.0
 11
2263.612878855466
 21
675.7762746699377
 31
0.0
  0
LINE
  5
B44
330
1B
100
AcDbEntity
  8
0
  6
Continuous
100
AcDbLine
 10
2263.612878855466
 20
750.7762746699376
 30
0.0
 11
2261.592152913267
 21
754.2762746699375
 31
0.0
  0
SPLINE
  5
B45
330
1B
100
AcDbEntity
  8
0
  6
Continuous
100
AcDbSpline
210
0.0
220
0.0
230
1.0
 70
     8
 71
     3
 72
     9
 73
     5
 74
     3
 42
0.0000000001
 43
0.0000000001
 44
0.0000000001
 40
0.0
 40
0.0
 40
0.0
 40
0.0
 40
2.586170082369644
 40
5.081701351831267
 40
5.081701351831267
 40
5.081701351831267
 40
5.081701351831267
 10
2260.247380582466
 20
752.2762746699376
 30
0.0
 10
2260.640409806883
 20
751.5090214520437
 30
0.0
 10
2261.412693561399
 20
750.0014053284372
 30
0.0
 10
2262.17204174358
 20
748.487233059022
 30
0.0
 10
2262.544943848967
 20
747.7436505491376
 30
0.0
 11
2260.247380582466
 21
752.2762746699376
 31
0.0
 11
2261.423117972367
 21
749.9728169896376
 31
0.0
 11
2262.544943848967
 21
747.7436505491376
 31
0.0
  0
SPLINE
  5
B46
330
1B
100
AcDbEntity
  8
0
  6
Continuous
100
AcDbSpline
210
0.0
220
0.0
230
1.0
 70
     8
 71
     3
 72
     9
 73
     5
 74
     3
 42
0.0000000001
 43
0.0000000001
 44
0.0000000001
 40
0.0
 40
0.0
 40
0.0
 40
0.0
 40
0.6143954606337194
 40
1.120800616393043
 40
1.120800616393043
 40
1.120800616393043
 40
1.120800616393043
 10
2263.612878855466
 20
744.4610433225377
 30
0.0
 10
2263.597351895018
 20
744.6658343218032
 30
0.0
 10
2263.569027097788
 20
745.0394208681162
 30
0.0
 10
2263.470345205736
 20
745.4006232727609
 30
0.0
 10
2263.425758311166
 20
745.5638233614377
 30
0.0
 11
2263.612878855466
 21
744.4610433225377
 31
0.0
 11
2263.545155920366
 21
745.0716949303377
 31
0.0
 11
2263.425758311166
 21
745.5638233614377
 31
0.0
  0
SPLINE
  5
B47
330
1B
100
AcDbEntity
  8
0
  6
Continuous
100
AcDbSpline
210
0.0
220
0.0
230
1.0
 70
     8
 71
     3
 72
    10
 73
     6
 74
     4
 42
0.0000000001
 43
0.0000000001
 44
0.0000000001
 40
0.0
 40
0.0
 40
0.0
 40
0.0
 40
0.2823209678101802
 40
1.239916756224996
 40
2.353757657118323
 40
2.353757657118323
 40
2.353757657118323
 40
2.353757657118323
 10
2263.425758311166
 20
745.5638233614377
 30
0.0
 10
2263.398902450199
 20
745.6540207328218
 30
0.0
 10
2263.280955022228
 20
746.0501557879468
 30
0.0
 10
2263.002607017199
 20
746.7853589782784
 30
0.0
 10
2262.704981378248
 20
747.4085512316126
 30
0.0
 10
2262.544943848967
 20
747.7436505491376
 30
0.0
 11
2263.425758311166
 21
745.5638233614377
 31
0.0
 11
2263.343703768666
 21
745.8339569967376
 31
0.0
 11
2263.009829341767
 21
746.7314632981376
 31
0.0
 11
2262.544943848967
 21
747.7436505491376
 31
0.0
  0
SPLINE
  5
B48
330
1B
100
AcDbEntity
  8
0
  6
Continuous
100
AcDbSpline
210
0.0
220
0.0
230
1.0
 70
     8
 71
     3
 72
    11
 73
     7
 74
     5
 42
0.0000000001
 43
0.0000000001
 44
0.0000000001
 40
0.0
 40
0.0
 40
0.0
 40
0.0
 40
0.8511078916135703
 40
1.542649903661385
 40
1.981076798367004
 40
2.153488104796361
 40
2.153488104796361
 40
2.153488104796361
 40
2.153488104796361
 10
2260.247380582466
 20
752.2762746699376
 30
0.0
 10
2260.118276077534
 20
752.5335764915043
 30
0.0
 10
2259.884271606351
 20
752.9999411371185
 30
0.0
 10
2259.709590871744
 20
753.600893340062
 30
0.0
 10
2259.521020741254
 20
754.0709268213361
 30
0.0
 10
2259.66063793427
 20
754.2310728657769
 30
0.0
 10
2259.700045395367
 20
754.2762746699375
 30
0.0
 11
2260.247380582466
 21
752.2762746699376
 31
0.0
 11
2259.889892050866
 21
753.0486648517377
 31
0.0
 11
2259.663312026266
 21
753.7020344614376
 31
0.0
 11
2259.599991875266
 21
754.1358647283377
 31
0.0
 11
2259.700045395367
 21
754.2762746699375
 31
0.0
  0
SPLINE
  5
B49
330
1B
100
AcDbEntity
  8
0
  6
Continuous
100
AcDbSpline
210
0.0
220
0.0
230
1.0
 70
     8
 71
     3
 72
    11
 73
     7
 74
     5
 42
0.0000000001
 43
0.0000000001
 44
0.0000000001
 40
0.0
 40
0.0
 40
0.0
 40
0.0
 40
0.8511078916133639
 40
1.542649903661393
 40
1.981076798366899
 40
2.153488104796349
 40
2.153488104796349
 40
2.153488104796349
 40
2.153488104796349
 10
2260.247380582466
 20
674.2762746699376
 30
0.0
 10
2260.118276077533
 20
674.0189728483709
 30
0.0
 10
2259.88427160635
 20
673.5526082027568
 30
0.0
 10
2259.709590871746
 20
672.9516559998129
 30
0.0
 10
2259.521020741253
 20
672.4816225185391
 30
0.0
 10
2259.66063793427
 20
672.3214764740984
 30
0.0
 10
2259.700045395367
 20
672.2762746699377
 30
0.0
 11
2260.247380582466
 21
674.2762746699376
 31
0.0
 11
2259.889892050866
 21
673.5038844881377
 31
0.0
 11
2259.663312026266
 21
672.8505148784376
 31
0.0
 11
2259.599991875266
 21
672.4166846115377
 31
0.0
 11
2259.700045395367
 21
672.2762746699377
 31
0.0
  0
SPLINE
  5
B4A
330
1B
100
AcDbEntity
  8
0
  6
Continuous
100
AcDbSpline
210
0.0
220
0.0
230
1.0
 70
     8
 71
     3
 72
    10
 73
     6
 74
     4
 42
0.0000000001
 43
0.0000000001
 44
0.0000000001
 40
0.0
 40
0.0
 40
0.0
 40
0.0
 40
0.282320967810289
 40
1.239916756225212
 40
2.353757657118331
 40
2.353757657118331
 40
2.353757657118331
 40
2.353757657118331
 10
2263.425758311166
 20
680.9887259784376
 30
0.0
 10
2263.398902450199
 20
680.8985286070536
 30
0.0
 10
2263.280955022229
 20
680.5023935519284
 30
0.0
 10
2263.002607017199
 20
679.7671903615964
 30
0.0
 10
2262.704981378248
 20
679.1439981082626
 30
0.0
 10
2262.544943848967
 20
678.8088987907378
 30
0.0
 11
2263.425758311166
 21
680.9887259784376
 31
0.0
 11
2263.343703768666
 21
680.7185923431376
 31
0.0
 11
2263.009829341767
 21
679.8210860417375
 31
0.0
 11
2262.544943848967
 21
678.8088987907378
 31
0.0
  0
SPLINE
  5
B4B
330
1B
100
AcDbEntity
  8
0
  6
Continuous
100
AcDbSpline
210
0.0
220
0.0
230
1.0
 70
     8
 71
     3
 72
     9
 73
     5
 74
     3
 42
0.0000000001
 43
0.0000000001
 44
0.0000000001
 40
0.0
 40
0.0
 40
0.0
 40
0.0
 40
0.6143954606334934
 40
1.120800616392927
 40
1.120800616392927
 40
1.120800616392927
 40
1.120800616392927
 10
2263.612878855466
 20
682.0915060173376
 30
0.0
 10
2263.597351895018
 20
681.8867150180721
 30
0.0
 10
2263.569027097788
 20
681.5131284717588
 30
0.0
 10
2263.470345205736
 20
681.1519260671148
 30
0.0
 10
2263.425758311166
 20
680.9887259784376
 30
0.0
 11
2263.612878855466
 21
682.0915060173376
 31
0.0
 11
2263.545155920366
 21
681.4808544095378
 31
0.0
 11
2263.425758311166
 21
680.9887259784376
 31
0.0
  0
SPLINE
  5
B4C
330
1B
100
AcDbEntity
  8
0
  6
Continuous
100
AcDbSpline
210
0.0
220
0.0
230
1.0
 70
     8
 71
     3
 72
     9
 73
     5
 74
     3
 42
0.0000000001
 43
0.0000000001
 44
0.0000000001
 40
0.0
 40
0.0
 40
0.0
 40
0.0
 40
2.586170082369644
 40
5.081701351831368
 40
5.081701351831368
 40
5.081701351831368
 40
5.081701351831368
 10
2260.247380582466
 20
674.2762746699376
 30
0.0
 10
2260.640409806883
 20
675.0435278878316
 30
0.0
 10
2261.412693561399
 20
676.5511440114381
 30
0.0
 10
2262.17204174358
 20
678.0653162808533
 30
0.0
 10
2262.544943848967
 20
678.8088987907378
 30
0.0
 11
2260.247380582466
 21
674.2762746699376
 31
0.0
 11
2261.423117972367
 21
676.5797323502376
 31
0.0
 11
2262.544943848967
 21
678.8088987907378
 31
0.0
  0
LINE
  5
B4D
330
1B
100
AcDbEntity
  8
0
  6
Continuous
100
AcDbLine
 10
2263.612878855466
 20
675.7762746699377
 30
0.0
 11
2261.592152913267
 21
672.2762746699377
 31
0.0
  0
LINE
  5
B4E
330
1B
100
AcDbEntity
  8
0
  6
Continuous
100
AcDbLine
 10
1823.612878855466
 20
675.7762746699377
 30
0.0
 11
1825.633604797667
 21
672.2762746699377
 31
0.0
  0
SPLINE
  5
B4F
330
1B
100
AcDbEntity
  8
0
  6
Continuous
100
AcDbSpline
210
0.0
220
0.0
230
1.0
 70
     8
 71
     3
 72
     9
 73
     5
 74
     3
 42
0.0000000001
 43
0.0000000001
 44
0.0000000001
 40
0.0
 40
0.0
 40
0.0
 40
0.0
 40
2.58617008236923
 40
5.081701351831057
 40
5.081701351831057
 40
5.081701351831057
 40
5.081701351831057
 10
1826.978377128466
 20
674.2762746699376
 30
0.0
 10
1826.585347904049
 20
675.0435278878316
 30
0.0
 10
1825.813064149535
 20
676.5511440114383
 30
0.0
 10
1825.053715967353
 20
678.0653162808535
 30
0.0
 10
1824.680813861966
 20
678.8088987907378
 30
0.0
 11
1826.978377128466
 21
674.2762746699376
 31
0.0
 11
1825.802639738566
 21
676.5797323502376
 31
0.0
 11
1824.680813861966
 21
678.8088987907378
 31
0.0
  0
SPLINE
  5
B50
330
1B
100
AcDbEntity
  8
0
  6
Continuous
100
AcDbSpline
210
0.0
220
0.0
230
1.0
 70
     8
 71
     3
 72
     9
 73
     5
 74
     3
 42
0.0000000001
 43
0.0000000001
 44
0.0000000001
 40
0.0
 40
0.0
 40
0.0
 40
0.0
 40
0.6143954606334934
 40
1.120800616392927
 40
1.120800616392927
 40
1.120800616392927
 40
1.120800616392927
 10
1823.612878855466
 20
682.0915060173376
 30
0.0
 10
1823.628405815914
 20
681.8867150180721
 30
0.0
 10
1823.656730613143
 20
681.5131284717588
 30
0.0
 10
1823.755412505198
 20
681.1519260671148
 30
0.0
 10
1823.799999399766
 20
680.9887259784376
 30
0.0
 11
1823.612878855466
 21
682.0915060173376
 31
0.0
 11
1823.680601790566
 21
681.4808544095378
 31
0.0
 11
1823.799999399766
 21
680.9887259784376
 31
0.0
  0
SPLINE
  5
B51
330
1B
100
AcDbEntity
  8
0
  6
Continuous
100
AcDbSpline
210
0.0
220
0.0
230
1.0
 70
     8
 71
     3
 72
    10
 73
     6
 74
     4
 42
0.0000000001
 43
0.0000000001
 44
0.0000000001
 40
0.0
 40
0.0
 40
0.0
 40
0.0
 40
0.2823209678102229
 40
1.23991675622578
 40
2.35375765711852
 40
2.35375765711852
 40
2.35375765711852
 40
2.35375765711852
 10
1823.799999399766
 20
680.9887259784376
 30
0.0
 10
1823.826855260733
 20
680.8985286070536
 30
0.0
 10
1823.944802688704
 20
680.5023935519281
 30
0.0
 10
1824.223150693735
 20
679.7671903615972
 30
0.0
 10
1824.520776332686
 20
679.1439981082627
 30
0.0
 10
1824.680813861966
 20
678.8088987907378
 30
0.0
 11
1823.799999399766
 21
680.9887259784376
 31
0.0
 11
1823.882053942266
 21
680.7185923431376
 31
0.0
 11
1824.215928369167
 21
679.8210860417375
 31
0.0
 11
1824.680813861966
 21
678.8088987907378
 31
0.0
  0
SPLINE
  5
B52
330
1B
100
AcDbEntity
  8
0
  6
Continuous
100
AcDbSpline
210
0.0
220
0.0
230
1.0
 70
     8
 71
     3
 72
    11
 73
     7
 74
     5
 42
0.0000000001
 43
0.0000000001
 44
0.0000000001
 40
0.0
 40
0.0
 40
0.0
 40
0.0
 40
0.8511078916132684
 40
1.542649903661298
 40
1.981076798366804
 40
2.153488104795726
 40
2.153488104795726
 40
2.153488104795726
 40
2.153488104795726
 10
1826.978377128466
 20
674.2762746699376
 30
0.0
 10
1827.107481633399
 20
674.0189728483709
 30
0.0
 10
1827.341486104581
 20
673.5526082027569
 30
0.0
 10
1827.516166839187
 20
672.9516559998126
 30
0.0
 10
1827.704736969678
 20
672.4816225185398
 30
0.0
 10
1827.565119776663
 20
672.3214764740985
 30
0.0
 10
1827.525712315566
 20
672.2762746699377
 30
0.0
 11
1826.978377128466
 21
674.2762746699376
 31
0.0
 11
1827.335865660066
 21
673.5038844881377
 31
0.0
 11
1827.562445684666
 21
672.8505148784376
 31
0.0
 11
1827.625765835666
 21
672.4166846115377
 31
0.0
 11
1827.525712315566
 21
672.2762746699377
 31
0.0
  0
SPLINE
  5
BEB
330
1B
100
AcDbEntity
  8
0
  6
Continuous
100
AcDbSpline
210
0.0
220
0.0
230
1.0
 70
     8
 71
     3
 72
    11
 73
     7
 74
     5
 42
0.0000000001
 43
0.0000000001
 44
0.0000000001
 40
0.0
 40
0.0
 40
0.0
 40
0.0
 40
0.8511078916134747
 40
1.542649903661289
 40
1.981076798366908
 40
2.153488104795738
 40
2.153488104795738
 40
2.153488104795738
 40
2.153488104795738
 10
1826.978377128466
 20
752.2762746699376
 30
0.0
 10
1827.107481633399
 20
752.5335764915042
 30
0.0
 10
1827.341486104582
 20
752.9999411371186
 30
0.0
 10
1827.516166839188
 20
753.6008933400625
 30
0.0
 10
1827.704736969678
 20
754.0709268213354
 30
0.0
 10
1827.565119776663
 20
754.2310728657769
 30
0.0
 10
1827.525712315566
 20
754.2762746699375
 30
0.0
 11
1826.978377128466
 21
752.2762746699376
 31
0.0
 11
1827.335865660066
 21
753.0486648517377
 31
0.0
 11
1827.562445684666
 21
753.7020344614376
 31
0.0
 11
1827.625765835666
 21
754.1358647283377
 31
0.0
 11
1827.525712315566
 21
754.2762746699375
 31
0.0
  0
SPLINE
  5
BEC
330
1B
100
AcDbEntity
  8
0
  6
Continuous
100
AcDbSpline
210
0.0
220
0.0
230
1.0
 70
     8
 71
     3
 72
    10
 73
     6
 74
     4
 42
0.0000000001
 43
0.0000000001
 44
0.0000000001
 40
0.0
 40
0.0
 40
0.0
 40
0.0
 40
0.2823209678101142
 40
1.239916756225564
 40
2.353757657118511
 40
2.353757657118511
 40
2.353757657118511
 40
2.353757657118511
 10
1823.799999399766
 20
745.5638233614377
 30
0.0
 10
1823.826855260733
 20
745.6540207328217
 30
0.0
 10
1823.944802688703
 20
746.0501557879474
 30
0.0
 10
1824.223150693736
 20
746.7853589782778
 30
0.0
 10
1824.520776332686
 20
747.4085512316125
 30
0.0
 10
1824.680813861966
 20
747.7436505491376
 30
0.0
 11
1823.799999399766
 21
745.5638233614377
 31
0.0
 11
1823.882053942266
 21
745.8339569967376
 31
0.0
 11
1824.215928369167
 21
746.7314632981376
 31
0.0
 11
1824.680813861966
 21
747.7436505491376
 31
0.0
  0
SPLINE
  5
BED
330
1B
100
AcDbEntity
  8
0
  6
Continuous
100
AcDbSpline
210
0.0
220
0.0
230
1.0
 70
     8
 71
     3
 72
     9
 73
     5
 74
     3
 42
0.0000000001
 43
0.0000000001
 44
0.0000000001
 40
0.0
 40
0.0
 40
0.0
 40
0.0
 40
0.6143954606337194
 40
1.120800616393043
 40
1.120800616393043
 40
1.120800616393043
 40
1.120800616393043
 10
1823.612878855466
 20
744.4610433225377
 30
0.0
 10
1823.628405815914
 20
744.6658343218032
 30
0.0
 10
1823.656730613144
 20
745.0394208681162
 30
0.0
 10
1823.755412505198
 20
745.4006232727609
 30
0.0
 10
1823.799999399766
 20
745.5638233614377
 30
0.0
 11
1823.612878855466
 21
744.4610433225377
 31
0.0
 11
1823.680601790566
 21
745.0716949303377
 31
0.0
 11
1823.799999399766
 21
745.5638233614377
 31
0.0
  0
SPLINE
  5
BEE
330
1B
100
AcDbEntity
  8
0
  6
Continuous
100
AcDbSpline
210
0.0
220
0.0
230
1.0
 70
     8
 71
     3
 72
     9
 73
     5
 74
     3
 42
0.0000000001
 43
0.0000000001
 44
0.0000000001
 40
0.0
 40
0.0
 40
0.0
 40
0.0
 40
2.58617008236923
 40
5.081701351830955
 40
5.081701351830955
 40
5.081701351830955
 40
5.081701351830955
 10
1826.978377128466
 20
752.2762746699376
 30
0.0
 10
1826.58534790405
 20
751.5090214520436
 30
0.0
 10
1825.813064149535
 20
750.0014053284369
 30
0.0
 10
1825.053715967353
 20
748.4872330590218
 30
0.0
 10
1824.680813861966
 20
747.7436505491376
 30
0.0
 11
1826.978377128466
 21
752.2762746699376
 31
0.0
 11
1825.802639738566
 21
749.9728169896376
 31
0.0
 11
1824.680813861966
 21
747.7436505491376
 31
0.0
  0
CIRCLE
  5
BEF
330
1B
100
AcDbEntity
  8
0
  6
Continuous
100
AcDbCircle
 10
2363.612878855466
 20
713.2762746699377
 30
0.0
 40
38.0
  0
ARC
  5
BF0
330
1B
100
AcDbEntity
  8
0
  6
Continuous
100
AcDbCircle
 10
2339.612878855466
 20
678.8088987907375
 30
0.0
 40
4.0
100
AcDbArc
 50
0.0
 51
55.15009542100013
  0
ARC
  5
BF1
330
1B
100
AcDbEntity
  8
0
  6
Continuous
100
AcDbCircle
 10
2339.612878855466
 20
747.7436505491376
 30
0.0
 40
4.0
100
AcDbArc
 50
304.8499045790007
 51
0.0000000000007994
  0
ARC
  5
BF2
330
1B
100
AcDbEntity
  8
0
  6
Continuous
100
AcDbCircle
 10
2387.612878855466
 20
678.8088987907375
 30
0.0
 40
4.0
100
AcDbArc
 50
124.8499045790003
 51
180.0000000000004
  0
ARC
  5
BF3
330
1B
100
AcDbEntity
  8
0
  6
Continuous
100
AcDbCircle
 10
2387.612878855466
 20
747.7436505491376
 30
0.0
 40
4.0
100
AcDbArc
 50
180.0000000000004
 51
235.1500954210005
  0
ARC
  5
BF4
330
1B
100
AcDbEntity
  8
0
  6
Continuous
100
AcDbCircle
 10
2381.612878855466
 20
674.2762746699376
 30
0.0
 40
2.0
100
AcDbArc
 50
270.0000000000006
 51
0.0000000000007994
  0
ARC
  5
BF5
330
1B
100
AcDbEntity
  8
0
  6
Continuous
100
AcDbCircle
 10
2345.612878855466
 20
674.2762746699376
 30
0.0
 40
2.0
100
AcDbArc
 50
180.0000000000004
 51
270.0000000000006
  0
ARC
  5
BF6
330
1B
100
AcDbEntity
  8
0
  6
Continuous
100
AcDbCircle
 10
2381.612878855466
 20
752.2762746699376
 30
0.0
 40
2.0
100
AcDbArc
 50
0.0
 51
90.00000000000019
  0
ARC
  5
BF7
330
1B
100
AcDbEntity
  8
0
  6
Continuous
100
AcDbCircle
 10
2345.612878855466
 20
752.2762746699376
 30
0.0
 40
2.0
100
AcDbArc
 50
90.00000000000019
 51
180.0000000000004
  0
CIRCLE
  5
BF8
330
1B
100
AcDbEntity
  8
0
  6
Continuous
100
AcDbCircle
 10
2363.612878855466
 20
713.2762746699377
 30
0.0
 40
30.3
  0
LINE
  5
C11
330
1B
100
AcDbEntity
  8
0
  6
Continuous
100
AcDbLine
 10
2345.612878855466
 20
754.2762746699375
 30
0.0
 11
2381.612878855466
 21
754.2762746699375
 31
0.0
  0
LINE
  5
C1A
330
1B
100
AcDbEntity
  8
0
  6
Continuous
100
AcDbLine
 10
2383.612878855466
 20
678.8088987907375
 30
0.0
 11
2383.612878855466
 21
674.2762746699376
 31
0.0
  0
LINE
  5
C1B
330
1B
100
AcDbEntity
  8
0
  6
Continuous
100
AcDbLine
 10
2383.612878855466
 20
752.2762746699376
 30
0.0
 11
2383.612878855466
 21
747.7436505491376
 31
0.0
  0
LINE
  5
C48
330
1B
100
AcDbEntity
  8
0
  6
Continuous
100
AcDbLine
 10
2343.612878855466
 20
747.7436505491376
 30
0.0
 11
2343.612878855466
 21
752.2762746699376
 31
0.0
  0
LINE
  5
C49
330
1B
100
AcDbEntity
  8
0
  6
Continuous
100
AcDbLine
 10
2343.612878855466
 20
674.2762746699376
 30
0.0
 11
2343.612878855466
 21
678.8088987907375
 31
0.0
  0
LINE
  5
C4A
330
1B
100
AcDbEntity
  8
0
  6
Continuous
100
AcDbLine
 10
2381.612878855466
 20
672.2762746699377
 30
0.0
 11
2345.612878855466
 21
672.2762746699377
 31
0.0
  0
LINE
  5
C4B
330
1B
100
AcDbEntity
  8
DEFAULT_1
  6
CENTER
100
AcDbLine
 10
2218.612878855466
 20
661.9319071392638
 30
0.0
 11
2218.612878855466
 21
764.2762746699376
 31
0.0
  0
LINE
  5
C4C
330
1B
100
AcDbEntity
  8
DEFAULT_1
  6
CENTER
100
AcDbLine
 10
2148.612878855467
 20
661.9319071392639
 30
0.0
 11
2148.612878855467
 21
764.2762746699376
 31
0.0
  0
LINE
  5
C4D
330
1B
100
AcDbEntity
  8
0
  6
Continuous
100
AcDbLine
 10
1825.633604797667
 20
754.2762746699375
 30
0.0
 11
2261.592152913367
 21
754.2762746699375
 31
0.0
  0
LINE
  5
C4E
330
1B
100
AcDbEntity
  8
0
  6
Continuous
100
AcDbLine
 10
1826.978377128466
 20
752.2762746699376
 30
0.0
 11
2260.247380582489
 21
752.2762746699376
 31
0.0
  0
LINE
  5
C4F
330
1B
100
AcDbEntity
  8
0
  6
Continuous
100
AcDbLine
 10
2262.544943848967
 20
747.7436505491376
 30
0.0
 11
1824.680813861966
 21
747.7436505491376
 31
0.0
  0
LINE
  5
C50
330
1B
100
AcDbEntity
  8
0
  6
Continuous
100
AcDbLine
 10
2263.612878855466
 20
744.4610433225377
 30
0.0
 11
1823.612878855466
 21
744.4610433225377
 31
0.0
  0
LINE
  5
C51
330
1B
100
AcDbEntity
  8
DEFAULT_1
  6
CENTER
100
AcDbLine
 10
2078.612878855466
 20
661.9319071392639
 30
0.0
 11
2078.612878855467
 21
764.2762746699376
 31
0.0
  0
LINE
  5
C52
330
1B
100
AcDbEntity
  8
DEFAULT_1
  6
CENTER
100
AcDbLine
 10
1813.612878855466
 20
713.2762746699377
 30
0.0
 11
2280.410375264812
 21
713.2762746699377
 31
0.0
  0
LINE
  5
C53
330
1B
100
AcDbEntity
  8
0
  6
Continuous
100
AcDbLine
 10
2263.612878855466
 20
682.0915060173376
 30
0.0
 11
1823.612878855466
 21
682.0915060173377
 31
0.0
  0
LINE
  5
C54
330
1B
100
AcDbEntity
  8
0
  6
Continuous
100
AcDbLine
 10
2262.544943848967
 20
678.8088987907375
 30
0.0
 11
1824.680813861966
 21
678.8088987907375
 31
0.0
  0
LINE
  5
C55
330
1B
100
AcDbEntity
  8
0
  6
Continuous
100
AcDbLine
 10
1826.978377128443
 20
674.2762746699376
 30
0.0
 11
2260.247380582489
 21
674.2762746699376
 31
0.0
  0
LINE
  5
C56
330
1B
100
AcDbEntity
  8
0
  6
Continuous
100
AcDbLine
 10
1825.633604797667
 20
672.2762746699377
 30
0.0
 11
2261.592152913367
 21
672.2762746699377
 31
0.0
  0
LINE
  5
C5B
330
1B
100
AcDbEntity
  8
DEFAULT_1
  6
CENTER
100
AcDbLine
 10
2008.612878855467
 20
661.9319071392639
 30
0.0
 11
2008.612878855467
 21
764.2762746699376
 31
0.0
  0
LINE
  5
C60
330
1B
100
AcDbEntity
  8
DEFAULT_1
  6
CENTER
100
AcDbLine
 10
1938.612878855466
 20
661.9319071392639
 30
0.0
 11
1938.612878855466
 21
764.2762746699376
 31
0.0
  0
LINE
  5
C67
330
1B
100
AcDbEntity
  8
DEFAULT_1
  6
CENTER
100
AcDbLine
 10
1868.612878855466
 20
661.9319071392639
 30
0.0
 11
1868.612878855466
 21
764.2762746699376
 31
0.0
  0
LINE
  5
C6C
330
1B
100
AcDbEntity
  8
0
  6
Continuous
100
AcDbLine
 10
1823.612878855466
 20
750.7762746699376
 30
0.0
 11
1825.633604797667
 21
754.2762746699375
 31
0.0
  0
LINE
  5
C6D
330
1B
100
AcDbEntity
  8
0
  6
Continuous
100
AcDbLine
 10
1823.612878855466
 20
750.7762746699376
 30
0.0
 11
1823.612878855466
 21
675.7762746699377
 31
0.0
  0
LINE
  5
C6E
330
1B
100
AcDbEntity
  8
DEFAULT_1
  6
CENTER
100
AcDbLine
 10
2363.612878855466
 20
661.9319071392638
 30
0.0
 11
2363.612878855466
 21
764.2762746699376
 31
0.0
  0
LINE
  5
DCB4
330
1B
100
AcDbEntity
  8
DEFAULT_1
  6
CENTER
100
AcDbLine
 10
2312.903990173709
 20
713.2762746699377
 30
0.0
 11
2411.612878855466
 21
713.2762746699377
 31
0.0
  0
ENDSEC
  0
SECTION
  2
OBJECTS
  0
DICTIONARY
  5
412
330
0
100
AcDbDictionary
281
     1
  3
ACAD_COLOR
350
41D
  3
ACAD_GROUP
350
413
  3
ACAD_LAYOUT
350
41E
  3
ACAD_MATERIAL
350
41C
  3
ACAD_MLINESTYLE
350
414
  3
ACAD_PLOTSETTINGS
350
41F
  3
ACAD_PLOTSTYLENAME
350
41A
  3
ACDBHEADERROUNDTRIPXREC
350
2ADF6
  3
AcDbVariableDictionary
350
2ADEE
  0
DICTIONARY
  5
41D
102
{ACAD_REACTORS
330
412
102
}
330
412
100
AcDbDictionary
281
     1
  0
DICTIONARY
  5
413
102
{ACAD_REACTORS
330
412
102
}
330
412
100
AcDbDictionary
281
     1
  0
DICTIONARY
  5
41E
102
{ACAD_REACTORS
330
412
102
}
330
412
100
AcDbDictionary
281
     1
  3
Layout1
350
421
  3
Model
350
420
  0
DICTIONARY
  5
41C
102
{ACAD_REACTORS
330
412
102
}
330
412
100
AcDbDictionary
281
     1
  0
DICTIONARY
  5
414
102
{ACAD_REACTORS
330
412
102
}
330
412
100
AcDbDictionary
281
     1
  3
STANDARD
350
415
  0
DICTIONARY
  5
41F
102
{ACAD_REACTORS
330
412
102
}
330
412
100
AcDbDictionary
281
     1
  0
ACDBDICTIONARYWDFLT
  5
41A
102
{ACAD_REACTORS
330
412
102
}
330
412
100
AcDbDictionary
281
     1
  3
Normal
350
41B
100
AcDbDictionaryWithDefault
340
41B
  0
DICTIONARY
  5
2ADF6
102
{ACAD_REACTORS
330
412
102
}
330
412
100
AcDbDictionary
281
     1
  3
COLORDICT
350
2ADF7
  3
MATERIALDICT
350
2ADF8
  0
DICTIONARY
  5
2ADEE
102
{ACAD_REACTORS
330
412
102
}
330
412
100
AcDbDictionary
281
     1
  0
LAYOUT
  5
421
102
{ACAD_REACTORS
330
41E
102
}
330
41E
100
AcDbPlotSettings
  1

  2
\\alderaan\HP LaserJet 4050 Ricerca
  4

  6

 40
0.0
 41
0.0
 42
0.0
 43
0.0
 44
0.0
 45
0.0
 46
0.0
 47
0.0
 48
0.0
 49
0.0
140
0.0
141
0.0
142
1.0
143
1.0
 70
   688
 72
     0
 73
     0
 74
     5
  7

 75
    16
147
1.0
148
0.0
149
0.0
100
AcDbLayout
  1
Layout1
 70
     0
 71
     1
 10
0.0
 20
0.0
 11
12.0
 21
9.0
 12
0.0
 22
0.0
 32
0.0
 14
1.000000000000000E+20
 24
1.000000000000000E+20
 34
1.000000000000000E+20
 15
-1.000000000000000E+20
 25
-1.000000000000000E+20
 35
-1.000000000000000E+20
146
0.0
 13
0.0
 23
0.0
 33
0.0
 16
1.0
 26
0.0
 36
0.0
 17
0.0
 27
1.0
 37
0.0
 76
     0
330
1C
  0
LAYOUT
  5
420
102
{ACAD_REACTORS
330
41E
102
}
330
41E
100
AcDbPlotSettings
  1

  2
\\alderaan\HP LaserJet 4050 Ricerca
  4
A4
  6

 40
5.027083396911621
 41
5.069430828094482
 42
5.365737915039062
 43
5.365753173828125
 44
209.8886566162109
 45
297.0530090332031
 46
49.784
 47
-1.016
 48
-230.9841981638419
 49
1816.890201395042
140
904.7601850852935
141
2209.683276104576
142
1.0
143
100.0
 70
 11956
 72
     0
 73
     1
 74
     4
  7

 75
    26
147
0.01
148
5866.998633361586
149
-46149.01111543406
100
AcDbLayout
  1
Model
 70
     1
 71
     0
 10
0.0
 20
0.0
 11
12.0
 21
9.0
 12
0.0
 22
0.0
 32
0.0
 14
0.0
 24
0.0
 34
0.0
 15
0.0
 25
0.0
 35
0.0
146
0.0
 13
0.0
 23
0.0
 33
0.0
 16
1.0
 26
0.0
 36
0.0
 17
0.0
 27
1.0
 37
0.0
 76
     0
330
1B
  0
MLINESTYLE
  5
415
102
{ACAD_REACTORS
330
414
102
}
330
414
100
AcDbMlineStyle
  2
STANDARD
 70
     0
  3

 62
   256
 51
90.00000000000019
 52
90.00000000000019
 71
     2
 49
0.5
 62
   256
  6
BYLAYER
 49
-0.5
 62
   256
  6
BYLAYER
  0
ACDBPLACEHOLDER
  5
41B
102
{ACAD_REACTORS
330
41A
102
}
330
41A
  0
XRECORD
  5
2ADF7
102
{ACAD_REACTORS
330
2ADF6
102
}
330
2ADF6
100
AcDbXrecord
280
     1
340
41D
  0
XRECORD
  5
2ADF8
102
{ACAD_REACTORS
330
2ADF6
102
}
330
2ADF6
100
AcDbXrecord
280
     1
340
41C
  0
ENDSEC
  0
EOF
